PrimaNota.ru - самый крупный в мире бесплатный архив песенных текстов, аккордов, табулатур и нот


Port Blue - The Grand Staircase - бас-таба, видео

Регистрация Запомнить меня
Войти через:  Facebook Google Twitter Vk Yandex Mail.ru

Port Blue - The Grand Staircase - бас-таба, видео

Печатать
Просмотров: 61
"The Grand Staircase"
by Port Blue (Owl City/Adam Young side project)
from the album 'The Airship' (2007)

first part (subtle...)
G-----------------------------------------|
D--1h3-3---1----3-3-----------------------|
A------------3--------0h1-3-3---1---------|
E---------------------------------3--1-1--|

second part (from 2:00)
G---------------------------------|
D---------------------------------|
A--1--3---1--3---1--3---3-----1---|
E-------------------------4-------|

third part (till end)
G----------|
D----------|
A--6---3---|
E----------|
Добавлено: 21.10.2013
Вам также может быть интересно:
Другие материалы по этой песне:
  • Аккорды и текст

Страница создана 21.10.2013
http://primanota.ru/port-blue/the-grand-staircase-chords.htm
Привет, Гость.
Предлагаем пройти революционный курс по гитаре.
Подарок от PrimaNota.Ru, забирай!