PrimaNota.ru - самый крупный в мире бесплатный архив песенных текстов, аккордов, табулатур и нот


Porno Riviste - Come Piace A Me - таба, видео

Регистрация Запомнить меня
Войти через:  Facebook Google Twitter Vk Yandex Mail.ru

Porno Riviste - Come Piace A Me - таба, видео

Печатать
Просмотров: 106
COME PIACE A ME (DANI)
!=insieme
*=pausa

 Do                                                   Sol
Tu sei proprio quella che non dice mai
			 La-                     Fa    Sol
Che questo mondo è positivo per me e per te e e
Do
Vedi me
			Sol
Che rendo questa vita futile
			  La-
Racconto storie un po' lunatiche
                Fa      Sol
Di questa gente futile
!La-                                 Fa
Io che ti conosco bene ormai
			          Do
E che penso a quello che ti farei se fossimo
	     Re-           Fa      Sol      La-
In un paradiso grigio come piace a me
				  Fa
Che dicon tutti che sono un po' strano
			        Do
Che pensan che io non sono umano
	    Re-                 Fa     Sol       La-       *(Sol Fa)
soltanto perché io penso come piace a me
mus. Do Re Fa Sol    2 volte arpeggiato (seconda volta giro di basso)

Do  			        sol
Piove se diventi strana ed irascibile
			La-		   Fa   Sol
Per quelle distrazioni mie che ti fanno riflettere
 Do                   		   Sol
Ma vedi che sono un pirata sulle nuvole
                  		      La-
Che crede troppo a troppe favole
	    Fa     Sol
Di questa gente inutile
  La-    			               Fa
Io che penso sempre a quello che fai
			     Do
Che penso a quello che ti farei se fossimo
	     Re-		  Fa  Sol     La-
In un paradiso grigio come piace a me
				Fa
Che dicon tutti che sono un po' strano
			       Do
Che pensan che io non sono umano
	    Re-                   Fa     Sol     *La-       !(Sol Fa)
soltanto perché io penso come piace a me.

Musicale con assolo  Do   Sol   La-   Fa   Sol     2 volte
e|--------------------------------------------------------------|
B|--------------------------------------------------------------|
G|-5--5-5-10-9-7--5-5-5-10-9-7--12-9-12-10-9-7-10-9-7-9-7-5-4-7-|
D|---5-------------5--------------------------------------------|
A|--------------------------------------------------------------|
E|--------------------------------------------------------------|

e|----------------------------------------------------------------|
B|-5--5-5-10-9-7--5-5-5-10-9-7--12-9-12-10-9-7-10-9-7-9-7-5-4-7-5-|
G|---5-------------5----------------------------------------------|
D|----------------------------------------------------------------|
A|----------------------------------------------------------------|
E|----------------------------------------------------------------|

Giro di basso in sottofondo
G|----------------------------------------------------------------|-----------|
D|---2-----2-3-5-3-2--------------------------------------5>7-5---|-7>10-9----|
A|-3---3-3--------------2----2-3-5-3-2----3-----3-5>7-5-3-------7-|--------10-|
E|--------------------3---3-3-----------5---5-5-------------------|-----------|
*
Ma io che ti conosco bene ormai
			          !Do
E che penso a quello che ti farei se fossimo
	     Re-           Fa      Sol      La-
In un paradiso grigio come piace a me
				  Fa
Che dicon tutti che sono un po' strano
			        Do
Che pensan che io non sono umano
	    Re-                 Fa     Sol       La-         (Sol Fa)
soltanto perché io penso come piace a me e eh

Assolo Do Re Fa Sol/Fa/Sol/Re 2 volte
G|----------------------------------|---------------------------------|
D|----------------------------------|---------------------------------|
A|-3-33333-5-55555------------------|-3-33333-5-55555---------3-2-5-3-|
E|------------------1-11111-3-33331-|-----------------1---------------|
                                                                                         
             Corretto da Yedduzzo
Добавлено: 13.06.2012
Другие материалы по этой песне:

Страница создана 25.05.2012
http://primanota.ru/porno-riviste/come-piace-a-me-chords.htm
Привет, Гость.
Предлагаем пройти революционный курс по гитаре.
Подарок от PrimaNota.Ru, забирай!