PrimaNota.ru - самый крупный в мире бесплатный архив песенных текстов, аккордов, табулатур и нот


Porno For Pyros - Cursed Male - текст песни, таба, видео

Регистрация Запомнить меня
Войти через:  Facebook Google Twitter Vk Yandex Mail.ru

Porno For Pyros - Cursed Male - текст песни, таба, видео

Печатать
Просмотров: 87


I'm sick and tired of looking for cursed male tabs or any other tabs by the greatest fuckin band ever porno for pyros. so here's a new addition to your list, cursed male. pluck almost every single note on the g string, and and slap ultimately every else.

g-------------------------------------------
d-------------------------------------------
a-------------8---------------10------------x6
e-6---8/10-10---8---10-12-12----12---------- 
             after that:
g-------------------------------------------
d-------------------------------------------
a-------------------------------------------
e-12---11---10---/9-------------------------

g-2/4-2-0-------9-9-------------------------
d---------0---------------------------------
a-----------5/7-----7----------------------- x3
e-------------------------------------------

g-2/4-2-------------------------------------
d-------2--0h2------------------------------
a-------------------------------------------x5
e-------------------------------------------

        now back to: 
g-------------------------------------------
d-------------------------------------------
a--------------8-------------10------------- x3
e-6----8/10-10---8--10-12-12----12----------

come into bridge w/ moderate speed strength and compassion while the sickest solo of all time is playing:
g-----------------------------
d-----------------------------
a---7-----7-7-----7------7-7--play till solo ends
e-0--11h12----0-0---11h12----0-

 then back to opening riff.
              
finally somebody took the initiative to tab out the greatest freakin song ever by a completeley kick ass tough as nails alete squad of courageos rock gods PORNO FOR PYROS.
          









Добавлено: 29.12.2013
Другие материалы по этой песне:
  • Аккорды и текст

Страница создана 31.05.2012
http://primanota.ru/porno-for-pyros/cursed-male-chords.htm
Привет, Гость.
Предлагаем пройти революционный курс по гитаре.
Подарок от PrimaNota.Ru, забирай!