PrimaNota.ru - самый крупный в мире бесплатный архив песенных текстов, аккордов, табулатур и нот


Porcupine Tree - Trains Porcupine Tree - таба, видео

Регистрация Запомнить меня
Войти через:  Facebook Google Twitter Vk Yandex Mail.ru

Porcupine Tree - Trains Porcupine Tree - таба, видео

Печатать
Просмотров: 184
Trains Porcupine Tree


(Capo 5th. fret)

Intro:

verse
e|-------------|--------------------|-0--------||
B|-3-3-3-3-3-3-|---3-3-3--0-3-0-3-0-|-0--------||
G|-2-0h2-0h2-0-|-0h0-0-0--0-2-0-2-0-|-0--------||
D|-------------|--h2-2-2------------|-2--------||
A|-------------|--h3-3-3------------|-2--------||
E|-------------|--------------------|-0--------||

prechorus
e|--------0-0-0-|-0-0--0-0--0-0-0----------|-0-----------0--||
B|-1-1--1-2-2-2-|-2-1--1-1--1-0-0--3-3-3-3-|-3--3-3-3-3--0--||
G|-0-0--0-0-0-0-|-0-0--0-0--0-0-0--0h2-0h2-|-0--0h2-0h2--0--||
D|-2-2--2-2-2-2-|-2-2--2-2--2-2-2----------|-2-----------2--||
A|-3-3--3-0-0-0-|-0-0--0-0--0-2-2----------|-3-----------2--||
E|-3-3--3-------|-------------0-0----------|-0-----------0--||

chorus
e|--0-0-0-0---|-0-0-0-0--|-2-2-------|------||
B|--2-2-1-1---|-1-1-0-0--|-3-3--2----|-1-0--||
G|--2-2-2-2---|-0-0-0-0--|-2-2--2----|-0-0--||
D|--2-2-2-2---|-2-2-2-2--|-0-0--2----|-2-2--||
A|--0-0-0-0---|-3-3-2-2--|------0----|-3-3--||
E|------------|-3-3-3-3--|-----------|-3-3--||



[Dsus2]--------[C]---------[Dsus2]----[Em]--[Dsus2]- 
Trains set and match spied under the blind, shiny and 

---[C]--------[Dsus2]--[Em]
contoured the railway winds 

---[Dsus2]----------[C]----[Dsus2]-------[Em]
And I've heard the sound from my cousin's bed, the 
[C]---------[A7]---------[Am7]---[Em]
hiss of the train at the railway head

[A]----[Am]--[C]------[Cmaj7]-------[D]-----[A]-[C]-[Cmaj7]
Alllllllllll ways the summers are slipping away

[Dsus2]----[C]--[Dsus2]-----[Em]---[Dsus2]------- 
A 60 ton angel falls to the earth, a pile of old 
[C]------[Dsus2]-[Em]
metal, a radiant blur
[C]------------[A7]-------[Am7]-----[Em]
scars in the country the summer and her

[A]----[Am]--[C]------[Cmaj7]-------[D]-----[A]-[C]-[Cmaj7]
Alllllllllll ways the summers are slipping away

[A]-[Am]---[C]--[Cmaj7]-[D]-------[A]---[C]-[Cmaj7]
Fi - nd me a way for making them stay 


Cmaj7 - Fmaj7 (Repeat X times then play second line)

       
|-------------0|--------------|-------------|-0----------------|
|----------0---|---0----------|------3------|-----3------------|
|-------0----0-|-0-----0-----.|----2---2---2|---2---2---2-----.|
|-----2---2----|-----2---2---.|0h3-------3--|---------3-------.|
|-0h3----------|--------------|-------------|------------------|
|--------------|--------------|-------------|------------------|

D

|--------------|2------2----3-|-------3---2-|-------2---0-------0--|
|-----3---3----|----3---------|---3---------|---3-----------3------| 
|---2---2---2--|--2---2--2----|-2---2---2---|-2---2---2---2---2---2|
|-0------------|0-----------0-|-----------0-|-----------0----------|
|--------------|--------------|-------------|----------------------|
|--------------|--------------|-------------|----------------------|




[A]--------------[Am]-----------[C]-------[Cmaj7]---- 
When I hear the engine pass I'm kissing you wide, the 


[D]--------[A]------------[C] [Cmaj7]
hissing subsides, I'm in luck 

[A]---------------[Am]----------------[C]---[Cmaj7] 
When the evening reaches here you're tying me up, 
-----[D]------[A]--------[C] [Cmaj7] 
I'm dying of love...It's OK 


Добавлено: 03.10.2013
Другие материалы по этой песне:
  • Аккорды и текст

Страница создана 03.10.2013
http://primanota.ru/porcupine-tree/trains-porcupine-tree-chords.htm
Привет, Гость.
Предлагаем пройти революционный курс по гитаре.
Подарок от PrimaNota.Ru, забирай!