PrimaNota.ru - самый крупный в мире бесплатный архив песенных текстов, аккордов, табулатур и нот


Porcupine Tree - Stars Die - текст песни, таба, бас-таба, видео

Регистрация Запомнить меня
Войти через:  Facebook Google Twitter Vk Yandex Mail.ru

Porcupine Tree - Stars Die - текст песни, таба, бас-таба, видео

Печатать
Просмотров: 224
  Em                  C                  Bm                 C
e|------------------|------------------|------------------|-----------------|
B|------------------|------------------|------------------|-----------------|
G|------------------|-12------12h14-12-|-11---------------|-----------------|
D|---------------12-|------------------|------------12-12-|/14-14-----------|
A|------------14----|------------------|------------------|-----------------|
E|------------------|------------------|------------------|-----------------|

  Em                  C                  Bm                 C
e|------------------|------------12----|\7----------10----|\3---------------|
B|------------------|-12---------------|------------------|-----------------|
G|---------------12-|------------------|------------------|-----------------|
D|------------14----|------------------|------------------|-----------------|
A|------------------|------------------|------------------|-----------------|
E|------------------|------------------|------------------|-----------------|


Em                 C        Bm                    C
   The moon shook              and curled up like gentle fire
Em                   C        Bm                  C
   The ocean glazed                        and melted wire
Em               C                Bm              C
   Voices buzzed   in spiral eyes     Stars dived in blinding skies


D    Dsus4 D    Dsus4 C
           Stars      die. 
D    Dsus4 D    Dsus4 C
           Blin-     -ding skies.


Em C Bm C


Em              C        Bm            C
   Tree cracked                and mountain cried
Em              C        Bm            C
   Bridges broke               and  window sighed
Em               C                   Bm                C
   Cells grew up    and rivers burst    Sound obscured and sense reversed


D    Dsus4 D    Dsus4 C
           Stars      die. 
D    Dsus4 D    Dsus4 C
           Blin-     -ding skies.


Em C Bm C |3x
Em C Bm Bb


Em            C       Bm           C
   Idle mind                   and severed soul
Em               C      Bm         C
   Silent nerves               and begging bowl
Em              C                 Bm              C
   Shallow haze    to blast a way     Hyper sleep to end the day


D    Dsus4 D    Dsus4 C
           Stars      die. 
D    Dsus4 D    Dsus4 C
           Blin-     -ding skies.

  Em     |--3--|  C                  Bm                     C
e|--------------|------------------|----------------------|-----------------|
B|--------------|------------------|----------------------|---------------3-|
G|--------------|-9-----------11b--|(12)r11p9h11----12r11-|-9\7---------4---|
D|------------9-|------------------|----------------------|-----------------|
A|----------7---|------------------|----------------------|-----------------|
E|--------------|------------------|----------------------|-----------------|

  Em                  C                  Bm                 C
e|------------------|------------------|------------------|-----------------|
B|--------------3-5-|------------------|------------------|-----------------|
G|-2/4--------------|-2----------------|------------------|-----------------|
D|------------------|-------------4b---|(5)r4-------------|-----------------|
A|------------------|------------------|--------------2-5-|-5-------------5-|
E|------------------|------------------|------------------|-----------------|

  Em
e|--------------|
B|--------------|
G|--------------|
D|-2------------|
A|-2------------|
E|-0------------|
Добавлено: 02.04.2012
Другие материалы по этой песне:
  • Аккорды и текст

Страница создана 02.04.2012
http://primanota.ru/porcupine-tree/stars-die-chords.htm
Привет, Гость.
Предлагаем пройти революционный курс по гитаре.
Подарок от PrimaNota.Ru, забирай!