PrimaNota.ru - самый крупный в мире бесплатный архив песенных текстов, аккордов, табулатур и нот


Porcupine Tree - Mother And Child Divided - таба, видео

Регистрация Запомнить меня
Войти через:  Facebook Google Twitter Vk Yandex Mail.ru

Porcupine Tree - Mother And Child Divided - таба, видео

Печатать
Просмотров: 163
Mother And Child Divided – Porcupine Tree
Tuning: DADGBe

Riff 1 / 00:11 – 1:00

E	|--------------------------------------------|	repeat
B	|--------------------------------------------|
G	|--------------------------------------------|
D	|--------------------------------------------|
A	|--------------------------------------------|
D	|----0---000---0---000---0---000-7-----------|

Riff 2 / 1:01 – 1:17

E	|--------------------------------------------|	repeat
B	|--------------------------------------------|
G	|--------------------------------------------|
D	|--------------------------------------------|
A	|--------------------------------------------|
D	|---0-12-00--12-000--12-000-0-12-------------|


Riff 3 / 1:49 – 2:21

E	|------------------------------------------------------------|
B	|------------------------------------------------------------|
G	|---10----11--13----14--10----11--13----14--16----17--19-----|
D	|------------------------------------------------------------|
A	|------------------------------------------------------------|
D	|------------------------------------------------------------|


E	|------------------------------------------------------------|
B	|--------------------19----21-----22-------------------------|
G	|---21----22-------------------------------------------------|
D	|------------------------------------------------------------|
A	|------------------------------------------------------------|
D	|------------------------------------------------------------|

Riff 4 / 2:22 – 2:55
E	|-----------------------------------------------|	repeat
B	|-----------------------------------------------|
G	|-----------------------------------------------|
D	|------12----15----11----10---------------------|
A	|------12----15----11----10---------------------|
D	|------12----15----11----10---------------------|

Rank:
Riff 1 / 00:11 – 1:00
Riff 2 / 1:01 - 1:17
Riff 1 / 1:18 – 1:48
Riff 2 / Riff 3 / 1:49 – 2:21
Riff 4 / 2:22 – 2:55
[synths/break]
Riff 2 / Riff 3 / 3:46 – 4:18
Riff 4 / 4:19 – 4:51
Riff 1 / 4:52 – end

Feel free to leave a comment, if something isn't correct!

Добавлено: 21.06.2012
Другие материалы по этой песне:

Страница создана 13.03.2012
http://primanota.ru/porcupine-tree/mother-and-child-divided-chords.htm
Привет, Гость.
Предлагаем пройти революционный курс по гитаре.
Подарок от PrimaNota.Ru, забирай!