PrimaNota.ru - самый крупный в мире бесплатный архив песенных текстов, аккордов, табулатур и нот


Porcupine Tree - Degree Zero Of Liberty - таба, видео

Регистрация Запомнить меня
Войти через:  Facebook Google Twitter Vk Yandex Mail.ru

Porcupine Tree - Degree Zero Of Liberty - таба, видео

Печатать
Просмотров: 100
Уроки эстрадного вокала в Санкт-Петербурге
-------------------------------------------------------------------------------
                             Degree Zero of Liberty - Porcupine Tree
-------------------------------------------------------------------------------
Tabbed by: David Benítez
E-mail: debml700@gmail.com

Tuning: DADGbe

e|-----------------------------------------------|
B|-3--3--3----------3--3--3----------3--3--------|
G|-2--2--2----------2--2--2----------2--2--13----|
D|-0--0--0----------0--0--0----------0--0--12----|
A|-0--0--0----------0--0--0----------0--0---0----|
D|-0--0--0----------0--0--0----------0--0---0----|


Let low open notes ring throughout
e|-----------------------------------------------0-0h2--2h5--4-------0-0h2----------|
B|-9---9---9h10---7------9---10--12\-5---7----3--------------3----3--------0---3----|
G|-7--------------7------7---------------7----5--------------2----5----------0-2----|
D|-0--------------0------0---------------0----0--------------0----0------------0----|
A|-0---------------------0---------------0------------------------------------------|
D|----------------------------------------------------------------------------------|

e|-----------------------------------------------0-0h2--2h5--4-------0-0h2-----0----|
B|-9---9---9h10---7------9---10--12\-5---7----3--------------3----3--------0---3----|
G|-7--------------7------7---------------7----5--------------2----5----------0-2----|
D|-0--------------0------0---------------0----0--------------0----0------------0----|
A|-0---------------------0---------------0------------------------------------------|
D|----------------------------------------------------------------------------------|

e|-----------------------------------------------|
B|-3--3--3----------3--3--3----------3--3--------|
G|-2--2--2----------2--2--2----------2--2--13----|
D|-0--0--0----------0--0--0----------0--0--12----|
A|-0--0--0----------0--0--0----------0--0---0----|
D|-0--0--0----------0--0--0----------0--0---0----|

************************************

| /   slide up
| \   slide down
| h   hammer-on
| p   pull-off
| ~   vibrato
| +   harmonic
| x   Mute note
| b   Bend
| pb  Pre-bend
| br  Bend release
| pbr Pre-bend release
| brb Bend release bend

************************************
Добавлено: 23.09.2015
Вам также может быть интересно:
Другие материалы по этой песне:
  • Аккорды и текст

Страница создана 23.09.2015
http://primanota.ru/porcupine-tree/degree-zero-of-liberty-chords.htm
Привет, Гость.
Предлагаем пройти революционный курс по гитаре.
Подарок от PrimaNota.Ru, забирай!