PrimaNota.ru - самый крупный в мире бесплатный архив песенных текстов, аккордов, табулатур и нот


Porcupine Tree - Chloroform - текст песни, бас-таба, видео

Регистрация Запомнить меня
Войти через:  Facebook Google Twitter Vk Yandex Mail.ru

Porcupine Tree - Chloroform - текст песни, бас-таба, видео

Печатать
Просмотров: 151
Авторы музыки: Chris Maitland

-------------------------------------------------------------------------------
			     Chloroform – Porcupine Tree
-------------------------------------------------------------------------------
Tabbed by: Jeff Cameron
Email: jcameron99@gmail.com

Tuning: Standard

Hey, here's a bonus track off In Absentia.  It's played on what sounds like a fretless 
but here's the basic idea.  Enjoy!

Riff 1 (Main Riff)
G|---------------------------------------------------------------------------|
D|---------------------------------------------------------------------------|
A|------7-6---6h7-------7-6---6h7--------------------------------------------|
E|--0-0-----7-------0-0-----7------------------------------------------------|

G|---------------------------------------------------------------------------|
D|---------------------------------------------------------------------------|
A|-------6-4-----4------6-4-------6------------------------------------------|
E|--4-4------4-4----4-4-----4-4h7--------------------------------------------|

Riff 2 (Chorus)
G|---------------------------------------------------------------------------|
D|---------------------------------------------------------------------------|
A|----2-2-2-2--------------------0-0-0-0-------------------------------------|
E|-------------4-4-4-4--3-3-3-3----------------------------------------------|

Riff 3 (Guitar Solo)
G|---------------------------------------------------------------------------|
D|---------------------------------------------------------------------------|
A|--------------3-3—0-1-1----------------------------------------------------|
E|---0-0-2-3-3---------------------------------------------------------------|

Riff 4 (Bass Breakdown)

This is the basic idea, but you can improvise this section mostly in the chord changes.

G|---------------------------------------------------------------------------|
D|---------------------------------------------------------------------------|
A|---------------------------------------------------------------------------|
E|----0---7-7-4—-7/9-9-9-4---------------------------------------------------|
Добавлено: 23.07.2012
Другие материалы по этой песне:
  • Аккорды и текст

Страница создана 01.04.2012
http://primanota.ru/porcupine-tree/chloroform-chords.htm
Привет, Гость.
Предлагаем пройти революционный курс по гитаре.
Подарок от PrimaNota.Ru, забирай!