PrimaNota.ru - самый крупный в мире бесплатный архив песенных текстов, аккордов, табулатур и нот


Porches - Mood Yak Session - таба, видео

Регистрация Запомнить меня
Войти через:  Facebook Google Twitter Vk Yandex Mail.ru

Porches - Mood Yak Session - таба, видео

Печатать
Просмотров: 133
e|---------------------------------------------------------------------------------
B|---------------------------------------------------------------------------------
G|---4---4---2---2---1--------------------4---------------------4------------------
D|-6-----------------------------------4---6---4-----------6-4-----6---4-----------
A|-0-------4---4---2---2-2-2-2-2-0-0-0-0-0-0-0-0-0-0-0-0-0-0-0-0-0-0-0-0-0-0-0-0-0-
E|---------------------------------------------------------------------------------

   i just wait around             to hear the good news    to hear the good news
e|---------------------------------------------------------------------------------
B|---------------------------------------------------------------------------------
G|---4---4---2---2---1-------------------4-----------------------4-----------------
D|-6-------------------------------6-4-----6---4-----------6-4-----6---7-----------
A|-0---0---4---4---2---2-2-2-2-2-0-0-0-0-0-0-0-0-0-0-0-0-0-0-0-0-0-0-0-0-0-0-0-0-0-
E|---------------------------------------------------------------------------------

  i just wait around               to hear from you        to hear from you
e|---------------------------------------------------------------------------------
B|---------------------------------------------------------------------------------
G|---4---4---2---2---1-------------------4-----------------------4-----------------
D|-6-------------------------------6-4-----6---4-----------6-4-----6---7-----------
A|-0---0---4---4---2---2-2-2-2-2-0-0-0-0-0-0-0-0-0-0-0-0-0-0-0-0-0-0-0-0-0-0-0-0---
E|---------------------------------------------------------------------------------

   (1st. are you in) (2nd. the mood)
e|---------------------------------
B|---------------------------------
G|-1---4---6--6--4-2-----1-2------- (2 times)
D|---------------------------------
A|---------------------------------
E|-0---4---5-5-5-4-2-2-2-0-2-2-2-0-

   oh i think i                    i   said the wrong  thing
e|-----------------------------------------------------2-------------------0-
B|-----------------------------------------------------2-------------------0-
G|-1---4---6--6--4-2-----1-2-------9-----8-------------2-------------------0-
D|-----------------------------------------------------2-------------------0- (1:14)
A|---------------------------------------------2-------0-------------------0-
E|-0---4---5-5-5-4-2-2-2-0-2-2-2-0-9-----7-----0-------0-0-0-0-0-0-0-0-0-0-0-

e|---------------------------------------------------------------------------------
B|---------------------------------------------------------------------------------
G|---4---4---2---2---1-------------------4-----------------------4-----------------
D|-6-------------------------------6-4-----6---4-----------6-4-----6---7-----------
A|-0---0---4---4---2---2-2-2-2-2-0-0-0-0-0-0-0-0-0-0-0-0-0-0-0-0-0-0-0-0-0-0-0-0-0-
E|---------------------------------------------------------------------------------

  don't know what i'd do     but i don't want to be here   don't want to be here
e|---------------------------------------------------------------------------------
B|---------------------------------------------------------------------------------
G|---4---4---2---2---1-------------------4-----------------------4-----------------
D|-6-------------------------------6-4-----6---4-----------6-4-----6---7-----------
A|-0---0---4---4---2---2-2-2-2-2-0-0-0-0-0-0-0-0-0-0-0-0-0-0-0-0-0-0-0-0-0-0-0-0-0-
E|---------------------------------------------------------------------------------

   so i just wait around           to hear the good news   to hear from you
e|---------------------------------------------------------------------------------
B|---------------------------------------------------------------------------------
G|---4---4---2---2---1-------------------4-----------------------4-----------------
D|-6-------------------------------6-4-----6---4-----------6-4-----6---7-----------
A|-0---0---4---4---2---2-2-2-2-2-0-0-0-0-0-0-0-0-0-0-0-0-0-0-0-0-0-0-0-0-0-0-0-0-0-
E|---------------------------------------------------------------------------------

 (1st. if you want) (2nd. to be on your way)
e|-----------------------------------------
B|-----------------------------------------
G|-1---4---6--6--4-2-----1-2-------1---4--- (2 times)
D|-----------------------------------------
A|-----------------------------------------
E|-0---4---5-5-5-4-2-2-2-0-2-2-2-0-0-0-4-4-

   well you don't have             have  to    stay
e|-----------------------------------------------------0-
B|-----------------------------------------------------2-
G|-1---4---6--6--4-2-----1-2-------9-----8-----1-------2-
D|---------------------------------------------2-------2-
A|---------------------------------------------2-------0-
E|-0---4---5-5-5-4-2-2-2-0-2-2-2-0-9-----7-----0-------0-
Добавлено: 08.07.2015
Другие материалы по этой песне:
  • Аккорды и текст

Страница создана 08.07.2015
http://primanota.ru/porches/mood-yak-session-chords.htm
Привет, Гость.
Предлагаем пройти революционный курс по гитаре.
Подарок от PrimaNota.Ru, забирай!