PrimaNota.ru - самый крупный в мире бесплатный архив песенных текстов, аккордов, табулатур и нот


Porches - Headsgiving - аккорды и текст, видео

Регистрация Запомнить меня
Войти через:  Facebook Google Twitter Vk Yandex Mail.ru

Porches - Headsgiving - аккорды и текст, видео

Печатать
Просмотров: 102
Headsgiving
Porches
-------------------------------------------------------------------------------
                             Headsgiving - Porches.
-------------------------------------------------------------------------------

Tuning: Standard

Capo 3

play A in verse like this:
e|-------------|
B|--2-3-2-2----|
G|--2-2-2-2----|
D|--2-2-2-2----|
A|-------------|
E|-------------|

Intro:

e|-------------------------3-3-3-3--2----------------------------------------|
B|-------------------------3-3-3-3--3----------------------------------------|
G|--------2-4--------2-4---0-0-0-0--2----------------------------------------|
D|--0-0-4------0-0-4-------0-0-0-0-------------------------------------------|
A|-------------------------2-2-2-2-------------------------------------------|
E|-------------------------3-3-3-3-------------------------------------------|

live they do this:

e|---------------------------------------------------------------------2-----|
B|-----------------------------------------------------------------3-5-------|
G|--------2-4--2-4--2-4-6-4-2-(end it with)--------2-4--2-4--2-4-6-----------|
D|--0-0-4-----------------------------------0-0-4----------------------------|
A|---------------------------------------------------------------------------|
E|---------------------------------------------------------------------------|

D          A     Em
i give you head 
G   D      A     Em
before you head 
Em A   Em   D
to therapy 

Bm C#m Bm  D Em D Em
Ohhhhh Ohh Ohh Ohhh

G  D       A    Em
we share a bed 
G    D        A      Em
just like the french 
Em   A         Em       D
just like true parents 

Bm C#m Bm  D Em D Em
Ohhhhh Ohh Ohh Ohhh

G                                        play live intro
what do you do when you wanted to die? 
                                     A      G      F#
then you wake up and you don't wanna die anymore 
       A        G    D
it has happened before 

N.C.             Em
she was just 17 
G   D          A         Em
you don't know what i mean 
Em A        Em   D
so call the police

Bm C#m Bm  D Em D Em
Ohhhhh Ohh Ohh Ohhh

G   D      A    Em
and in her eyes 
G D      A   Em
i wanna die 
Em   A   Em D
before i die 

Bm C#m Bm  D Em D Em
Ohhhhhh the sad kind 

G                                       play live intro
what do you do when you wanted to die? 
                                       A     G      F#
then you wake up and you don't wanna a die anymore 
       A        G    D
it has happened before

live intro
Добавлено: 05.09.2015
Вам также может быть интересно:
Другие материалы по этой песне:
  • Аккорды и текст

Страница создана 05.09.2015
http://primanota.ru/porches/headsgiving-chords.htm
Привет, Гость.
Предлагаем пройти революционный курс по гитаре.
Подарок от PrimaNota.Ru, забирай!