PrimaNota.ru - самый крупный в мире бесплатный архив песенных текстов, аккордов, табулатур и нот


Popol Ace - Queen Of All Queens - таба, видео

Регистрация Запомнить меня
Войти через:  Facebook Google Twitter Vk Yandex Mail.ru

Popol Ace - Queen Of All Queens - таба, видео

Печатать
Просмотров: 28
-------------------------------------------------------------------------------
                             Queen of all queens - Popol Ace
-------------------------------------------------------------------------------
Tabbed by: Andreas Siem
E-mail: andreas2312@hotmail.com

Tuning: Standard     4/4 stroke

Intro: El-piano 4 strokes

e|--------------------------------------------------------|
B|--------------------------------------------------------|
G|-----------------------2----------------------------2---|
D|---------2-----------2---4b5b4----------2---------2-----|
A|-------2---5-0-2-3-4------------------2---5-2-3-4-------|
E|-0-3-4--------------------------0-3-4-------------------|

e|--------------------------------------------------------|
B|--------------------------------------------------------|
G|-----------------------2----------------------------2---|
D|---------2-----------2---4b5b4----------2---------2-----|
A|-------2---5-0-2-3-4------------------2---5-2-3-4-------|
E|-0-3-4--------------------------0-3-4-------------------|

Blond haired baby-doll
glamour-girl long and tall,
blue-eyed super-girl,
livin' in her beauty-world!

e|-------------------------------------------------------|
B|-------------------------------------------------------|
G|-----------------------2----------------------------2--|
D|---------2-----------2---4b5b4----------2---------2----|
A|-------2---5-0-2-3-4------------------2---5-2-3-4------|
E|-0-3-4--------------------------0-3-4------------------|

Red haired freckeled face,
fuckin' up the beauty-race.
She knows what she wants
and she knows how to get it.

e|---------------|
B|---------------|
G|---------4-----|
D|-------4-------|
A|-4-5-6---------|
E|---------------|

She knows what to say
and she knows how to say it.

e|--------------------|
B|--------------------|
G|--------------------|
D|-5-6-------------7--|
A|-----7-------4-7----|
E|-------7-4-5--------|

She's the queen of all queens

e|-----------|
B|-----------|
G|---------4-|
D|-------4---|
A|-----6-----|
E|-6-7-------|

in her white washed jeans.

e|---------|
B|---------|
G|---------|
D|-----6-9-|
A|-6-7-----|
E|---------|

     G   D    A        D   A   E   
Get off your ass, get on your feet.
           G    D    A   
Get outta town real fast, cause baby
      D     A    C
now you're the freak.

e|--------------------------------14-------12----------------------------------------|
B|---------------------------------------------------------------------------|
G|--------------------------13b15----11b13----11-----------------------------------------|
D|---------------------------------------------------------------------------|
A|---------------------------------------------------------------------------|
E|---------------------------------------------------------------------------|

Intro: El-piano 4 strokes

e|--------------------------------------------------------|
B|--------------------------------------------------------|
G|-----------------------2----------------------------2---|
D|---------2-----------2---4b5b4----------2---------2-----|
A|-------2---5-0-2-3-4------------------2---5-2-3-4-------|
E|-0-3-4--------------------------0-3-4-------------------|

e|--------------------------------------------------------|
B|--------------------------------------------------------|
G|-----------------------2----------------------------2---|
D|---------2-----------2---4b5b4----------2---------2-----|
A|-------2---5-0-2-3-4------------------2---5-2-3-4-------|
E|-0-3-4--------------------------0-3-4-------------------|

She thinks she looks good
in her see-trough underwear,
and maybe she does,
but in the morning who cares

e|--------------------------------------------------------|
B|--------------------------------------------------------|
G|-----------------------2----------------------------2---|
D|---------2-----------2---4b5b4----------2---------2-----|
A|-------2---5-0-2-3-4------------------2---5-2-3-4-------|
E|-0-3-4--------------------------0-3-4-------------------|

She's always in the spot
where the groove is going hot,
with that look in her eyes
that you're really not her size.

e|---------------|
B|---------------|
G|---------4-----|
D|-------4-------|
A|-4-5-6---------|
E|---------------|

And everything she knows
is just a bunch of sweet lies.

e|--------------------|
B|--------------------|
G|--------------------|
D|-5-6-------------7--|
A|-----7-------4-7----|
E|-------7-4-5--------|

She's the queen of all queens

e|-----------|
B|-----------|
G|---------4-|
D|-------4---|
A|-----6-----|
E|-6-7-------|

in her white washed jeans.

e|---------|
B|---------|
G|---------|
D|-----6-9-|
A|-6-7-----|
E|---------|

     G   D    A        D   A   E   
Get off your ass, get on your feet.
           G    D    A   
Get outta town real fast, cause baby
      D     A    C
now you're the freak.

Bridge: El-Piano 6 strokes

Solo (Arne Schulze): - OR IMPROVISE IN C#m scale! Good song to improvise!
e|---------------------------------------------------------------------------|
B|---------------------------------------------------------------------------|
G|---------------------------------------------------------------------------|
D|---------------------------------------------------------------------------|
A|---------------------------------------------------------------------------|
E|---------------------------------------------------------------------------|

Solo-Outro:
e|---------------------------------------------------------------------------|
B|---------------------------------------------------------------------------|
G|---------------------------------------------------------------------------|
D|---------------------------------------------------------------------------|
A|---------------------------------------------------------------------------|
E|---------------------------------------------------------------------------|

Blond haired baby-doll
glamour-girl long and tall,
blue-eyed super-girl,
livin' in her beauty-world!

e|-------------------------------------------------------|
B|-------------------------------------------------------|
G|-----------------------2----------------------------2--|
D|---------2-----------2---4b5b4----------2---------2----|
A|-------2---5-0-2-3-4------------------2---5-2-3-4------|
E|-0-3-4--------------------------0-3-4------------------|

Red haired freckeled face,
fuckin' up the beauty-race.
She knows what she wants
and she knows how to get it.

e|---------------|
B|---------------|
G|---------4-----|
D|-------4-------|
A|-4-5-6---------|
E|---------------|

She knows what to say
and she knows how to say it.

e|--------------------|
B|--------------------|
G|--------------------|
D|-5-6-------------7--|
A|-----7-------4-7----|
E|-------7-4-5--------|

She's the queen of all queens

e|-----------|
B|-----------|
G|---------4-|
D|-------4---|
A|-----6-----|
E|-6-7-------|

in her white washed jeans.

e|---------|
B|---------|
G|---------|
D|-----6-9-|
A|-6-7-----|
E|---------|

     G   D    A        D   A   E   
Get off your ass, get on your feet.
           G    D    A   
Get outta town real fast, cause baby
      D     A    C
now you're the freak.

Outro:
e|---------------------------------------------------------------------------|
B|---------------------------------------------------------------------------|
G|---------------------------------------------------------------------------|
D|---------------------------------------------------------------------------|
A|---------------------------------------------------------------------------|
E|---------------------------------------------------------------------------|

************************************

| /   slide up
| \   slide down
| h   hammer-on
| p   pull-off
| ~   vibrato
| +   harmonic
| x   Mute note
| b   Bend
| pb  Pre-bend
| br  Bend release
| pbr Pre-bend release
| brb Bend release bend

************************************
Добавлено: 19.09.2015
Вам также может быть интересно:
Другие материалы по этой песне:
  • Аккорды и текст

Страница создана 19.09.2015
http://primanota.ru/popol-ace/queen-of-all-queens-chords.htm
Привет, Гость.
Предлагаем пройти революционный курс по гитаре.
Подарок от PrimaNota.Ru, забирай!