PrimaNota.ru - самый крупный в мире бесплатный архив песенных текстов, аккордов, табулатур и нот


Popeda - 20 centtia - бас-таба, видео

Регистрация Запомнить меня
Войти через:  Facebook Google Twitter Vk Yandex Mail.ru

Popeda - 20 centtia - бас-таба, видео

Печатать
Просмотров: 76



Date: Thu, 21 Jul 2005 22:44:28 +0200 (CEST)
From: [iso-8859-1] Jan Bjяfffffffffff6rklund 
Subject: p/popeda/20_centtia.btab

20 centtiд.btab
Popeda
TablEdited by Poppamies
Tuning : E A D G 	Time Signature: 4/4

 tempo 134       |       |        |       |       |       |        
|--------------------------------|--------------------------------|
|--------------------------------|--------------------------------|
|--------------------------------|--------------------------------|
|----------------0-------0-------|5-------5/--3---1-------1-------|

 |       |       |       |        |       |       |       |        
|--------------------------------|--------------------------------|
|--------------------------------|--------------------------------|
|--------------------------------|--------------------------------|
|3-------3-------5-------5---0---|5-------5/--3---1-------1-------|

 |       |       |       |        |       |       |       |        
|--------------------------------|--------------------------------|
|--------------------------------|--------------------------------|
|--------------------------------|--------------------------------|
|3-------3-------0-------0-------|5-------5---3---1-------1-------|

 |       |       |       |        |       |       |       |        
|--------------------------------|--------------------------------|
|--------------------------------|--------------------------------|
|--------------------------------|--------------------------------|
|3-------3-------5-------5/--3---|1-------1/--2---3-------3-------|

 |       |       |       |        |       |       |       |        
|--------------------------------|--------------------------------|
|--------------------------------|--------------------------------|
|--------------------------------|----3---------------5-----------|
|5-------5-------5-------5---3---|1-------1-------3-------3-------|

 |       |       |       |        |       |       |       |        
|--------------------------------|--------------------------------|
|--------------------------------|--------------------------------|
|0-------------------------------|----------------------------0---|
|--------------------------------|--------------------------------|

 |       |       |       |        |       |       |       |        
|--------------------------------|--------------------------------|
|--------------------------------|--------------------------------|
|0-------------------------------|0-------------------------------|
|--------------------------------|------------------------0/--3---|

 Outi vei|pois   |       |        sen mitд|sain...|       |        
|--------------------------------|--------------------------------|
|--------------------------------|----------------2---------------|
|0-----------------------0---2---|3-----------------------3-------|
|--------------------------------|--------------------------------|

 |       |       |       |        |       |       |       |        
|0-------------------------------|--------------------------------|
|------------------------3---0---|2-----------------------2-------|
|--------------------------------|----------------2---------------|
|--------------------------------|--------------------------------|

 |       |       |       |        |       |       |       |        
|--------------------------------|--------------------------------|
|--------------------------------|--------------------------------|
|----------------------------2---|3-------------------------------|
|5---------------3---------------|--------------------------------|

 |       |       |       |        |       |       |       |        
|--------------------------------|--------------------------------|
|--------------------------------|--------------------------------|
|--------------------------------|--------------------------------|
|3-------------------------------|0-------------------------------|

 |       |       |       |        |       |       |       |        
|--------------------------------|--------------------------------|
|--------------------------------|--------------------------------|
|--------------------------------|3---3---3---3---3---3---3---3---|
|1---1---1---1---1---1---1---1---|--------------------------------|

 |       |       |       |        |       |       |       |        
|--------------------------------|--------------------------------|
|--------------------------------|--------------------------------|
|--------------------------------|0---0---------------------------|
|0---0---0---0---0---0---0---0---|----------------3---------------|

 |       |       |       |                
|--------------------------------|
|-------------j.n.e--------------|
|--------------------------------|
|1-------------------------------|

Transcribe  6.0 transcription http://www.seventhstring.demon.co.uk/
Created with TablEdit http://www.tabledit.com/
http://www.geocities.com/jani_bjorklund/janis.html



Jan Bjorklund, Finland


Добавлено: 07.08.2013
Другие материалы по этой песне:
  • Аккорды и текст

Страница создана 07.08.2013
http://primanota.ru/popeda/20-centtia-chords.htm
Привет, Гость.
Предлагаем пройти революционный курс по гитаре.
Подарок от PrimaNota.Ru, забирай!