PrimaNota.ru - самый крупный в мире бесплатный архив песенных текстов, аккордов, табулатур и нот


Popa Chubby - Why I Cant Have You - таба, видео

Регистрация Запомнить меня
Войти через:  Facebook Google Twitter Vk Yandex Mail.ru

Popa Chubby - Why I Cant Have You - таба, видео

Печатать
Просмотров: 101
Why I Can't Have You
(Popa Chubby – « Stealing The Devil's Guitar » )
for http://www.brusselscityblues.fr.tc


Chords :

C / E7 / F
C / E7 / F
C / E7 / A – G – F
Dm7 / C

F / Fm / C
F / Fm / C
F / C – B – A
Dm7 / C


Riff :

|---------------------------L----------------------|
|--6---6--6-----4----6----8--E---------------------|
|--5---5-—5-----5----7----9---T-R------------------|
|--7---7--7-----6----8----10-----I-----------------|
|--5------5-----6----8-—--10------N----------------|
|---------------4---—6----8--------G-------8-------|

|------8------------0------------------------------|
|--------8----------------------6-----------6------|
|------—---9------7---7-------5---5-------5---5----|
|---------------6-------6---7-------7---7-------7--|
|-------------7----—------8-----------8------------|
|--8----------------—------------------------------|

|--------8h10p8----------0-------------------------|
|------8-------8---------------------6-------------|
|----9—----------9-----7---7-------5---5-------5---|
|--------------------6-------6---7-------7---7-----|
|------------------7--—--------8-----------8-------|
|--8----------------—------------------------------|

|---------------8-----------0----------------------|
|--6----------8---8---------------(5)-(3)-(1)------|
|----5--—---9-------9-----7---7----6---4---2—-2----|
|------7----------------6-------6--7---5---3--3----|
|------------------—--7------------7---5---3--3----|
|---------8---------—--------------5---3---1-------|

|--------------------------------------------------|
|------6---6--5---6--X-----------------------------|
|------5—--5--5---5--X-----------------------------|
|------7---7----7----X-----------------------------|
|--5----------------—------------------------------|
|-------------------—---3--3-5--5-7—-7-8—-8/10-----|

|-------------------0------------------------------|
|-------X--X--------------------6-----------6------|
|------—X--X------7---7-------5---5-------5---5----|
|-------X--X----6-------6---7-------7---7-------7--|
|-------X--X--7----—------8-----------8------------|
|--8----------------—------------------------------|

|--------8h10p8----------0-------------------------|
|------8-------8---------------------6-------------|
|----9—----------9-----7---7-------5---5-------5---|
|--------------------6-------6---7-------7---7-----|
|------------------7--—--------8-----------8-------|
|--8----------------—------------------------------|

|---------------8h10p8----------0------------------|
|--6----------8-------8---------------(5)-(3)-(1)--|
|----5--—---9-----------9-----7---7----6---4---2—-2|
|------7--------------------6-------6--7---5---3--3|
|------------------—------7------------7---5---3--3|
|---------8---------—------------------5---3---1---|

|--------------------------------------------------|
|------6---6--5---6--X-----------------------------|
|------5—--5--5---5--X-----------------------------|
|------7---7----7----X-----------------------------|
|--5----------------—------------------------------|
|-------------------—--3--3-5--5-7—-7-8—-/---------|

|--1-LET--1--1--X--1-LET--1---^-0-LET--------8-----|
|--1------1--1--X--1------1---|-1--------------8---|
|--2-RING-2--2—-X--1-RING-1---|-0-RING--9-10-----10|
|--3------3--3--X--3------3---|-2------------------|
|--3------3--3--X--3----—-3---|-3------------------|
|--1------1--1--X--1----—-1------------------------|

|--1-LET--1-LET--X--1-LET--1---^-0-LET---------12~~|
|--1------1------X--1------1---|-1-----------------|
|--2-RING-2-RING-X—-1-RING-1---|-0-RING--/9-/12----|
|--3------3------X--3------3---|-2-----------------|
|--3------3------X--3------3---|-3-----------------|
|--1------1------X--1------1-----------------------|

|--------------------------------------------------|
|--------10---------10---------------------5-------|
|------10—-10-----10--10-------------------6-------|
|----10------10-10------10-------------7---7-------|
|--8-----------8-----—-----------------7-----------|
|------------------—--------8---8-7-5-(5)----------|

|--------------------------------------------------|
|------6---6---6---------8~~~-whammy-bar-----------|
|------5—--5---5-------9—--------------------------|
|------7---7---7-----10----------------------------|
|--5---5---5---5---10------—-----------------------|
|------------------—-------------------------------|

|----8h10p8---------0------------------------------|
|----------8--------------------6-----------6------|
|------—----9-----7---7-------5---5-------5---5----|
|---------------6-------6---7-------7---7-------7--|
|--------------7----—-----8-----------8------------|
|--8----------------—------------------------------|

|----------8-------------0------------1h3p1--------|
|-------8-----8----------------------1-----1-----1-|
|----9-—--------9------7---7-------2--------2--2---|
|--------------------6-------6---3-----------3-----|
|------------------7--—----------------------------|
|--8----------------—------------------------------|

|--1----------8h10p8---------0---------------------|
|----2------8-------8----------------(5)--(3)--(1)-|
|-----3-—-9----------9-----7---7------6----4----2—-|
|------------------------6-------6----7----5----3--|
|-------------------—--7--------------7----5----3--|
|-------8---------—-------------------5----3----1--|

|--------------------------------------------------|
|------6---6--5---6--X-----------------------------|
|------5—--5--5---5--X—-12-—12/10---10/9—--9/7-----|
|------7---7----7----X-----------------------------|
|--5----------------—---10-—10/8—----8/7—--7/5-----|
|-------------------—------------------------------|

|--1-LET--1--1--X--1-LET--1---^-0-LET--------8-10--|
|--1------1--1--X--1------1---|-1------------------|
|--2-RING-2--2—-X--1-RING-1---|-0-RING--9-10-------|
|--3------3--3--X--3------3---|-2------------------|
|--3------3--3--X--3----—-3---|-3------------------|
|--1------1--1--X--1----—-1------------------------|

|--8h10p8-----1-LET--1-LET--X--1-LET--1---^-0-LET--|
|---------8---1------1------X--1------1---|-1------|
|-------------2-RING-2-RING-X—-1-RING-1---|-0-RING-|
|-------------3------3------X--3------3---|-2------|
|-------------3------3------X--3------3---|-3------|
|-------------1------1------X--1------1------------|

|-------12-------15--------------------------------|
|------—-------------------------------------------|
|--/12-------/15-----------------------------------|
|------------------—-------------------------------|
|------------------—-------------------------------|
|--------------------------------------------------|

|---------------------------8-LR--8--7--5-LR-------|
|--------10---------10------8-----8--7--5------5---|
|------10—-10-----10--10----9-----9--8--6------6---|
|----10------10-10------10--10-----------------7---|
|--8-----------8-----—------10—----------------7---|
|------------------—--------8----------------------|

|--------------------------------------------------|
|--------6---6---5-LET-----6/----------------------|
|--------5—--5---5---RING—-5/----------------------|
|--------7---7---7---------7/----------------------|
|--5-----5---5------------—------------------------|
|------------------—-------------------------------|


Solo :


|--8-8--8-(8)-10B-10B--8----------------------------|
|--8h10---10-------------8--11-11FB-11FB~~-|R-------|
|------—-----------------------------------|A-10FB--|
|------------------------------------------|K-------|
|------------------—-----------------------VE-------|
|------------------—--------------------------------|

|--8--------8--------8---10B-10-8-10-10p8---8-/8~~--|
|----8—11FB---8-11FB---8------------------8---------|
|------—--------------------------------------------|
|---------------------------------------------------|
|------------------—--------------------------------|
|------------------—--------------------------------|

|--8-11-12-13/15------------------------------------|
|----------------13-13~~/-----13----15B-13~~-13~13--|
|------—------------------/14----14-----------------|
|---------------------------------------------------|
|------------------—--------------------------------|
|------------------—--------------------------------|

|-----15FB-15-13--------------------------8---------|
|--13------------15B15p13----13~~15B-/------8-------|
|------—------------------14-----------/9-----------|
|---------------------------------------------------|
|------------------—--------------------------------|
|------------------—--------------------------------|

|--10B-10B10p8--------------------------------------|
|--------------10-8~~-8~8~8~/9~9~9~9~9/10/8-8/6-6~~-|
|------—--------------------------------------------|
|---------------------------------------------------|
|------------------—--------------------------------|
|------------------—--------------------------------|

|--10-10--10----------------------------------------|
|--10h12--10--------------------------12--10--/-----|
|------—------/14-13—-10h12p10---10---12—-10B-/-----|
|------------------------------12--12---------------|
|------------------—--------------------------------|
|------------------—--------------------------------|

|---------------------------------------------------|
|------12------10------8----------------------------|
|------—--------------------------------------------|
|--/12----/10------/9-------------------------------|
|------------------—--------------------------------|
|------------------—--------------------------------|
Fingers style

|---------------------------------------------------|
|------13-----15B15-13----13-13~~13-13-12~~12-12----|
|--/12----12—----------14---------------------------|
|---------------------------------------------------|
|------------------—--------------------------------|
|------------------—--------------------------------|

|--15FB15-------------------------------------------|
|---------13-13~~----13-15B--13-15----13~~13~~------|
|------—----------14---------------14---------------|
|---------------------------------------------------|
|------------------—--------------------------------|
|------------------—--------------------------------|

|--^R-15-14-13----------15-14-13----------15-14-13--|
|--|A----------15-13-------------15-13--------------|
|--|K----—-----------14----------------14-----------|
|--|E-----------------------------------------------|
|------------------—--------------------------------|
|------------------—--------------------------------|

|---------------------------------------------------|
|--16-15-13----13-15B-15B~~15B15p13----13~~16/------|
|------—----14----------------------14--------------|
|---------------------------------------------------|
|------------------—--------------------------------|
|------------------—--------------------------------|

|-----8----10B-10~~/----------8---------8-----------|
|-------8------------0----------8---------8---------|
|--/9----—-----------0-10FB------10-10FB----10FB-10-|
|--------------------0------------------------------|
|------------------—--------------------------------|
|------------------—--------------------------------|

|---------------------------------------------------|
|--------------------------------------------10B10--|
|--8-10B10p8-10--—-10------------10-8B8----8-10B10--|
|---------------10----/10-8-8h10--------10---10B10--|
|------------------—--------------------------------|
|------------------—--------------------------------|

|--------------8---------------------13—13FB13p11---|
|------------8---/13~~13~13~16-13-16----------------|
|--8-10-8h10--—-------------------------------------|
|---------------------------------------------------|
|------------------—--------------------------------|
|------------------—--------------------------------|

|-----13-11-11h12----------------------16---16---16-|
|--13-------------13-----13~~-13-13—15B—-15B-—15B---|
|------—-------------/14----------------------------|
|---------------------------------------------------|
|------------------—--------------------------------|
|------------------—--------------------------------|

|------16----16----16----16----16----16----16-------|
|--15B~--15B~--15B~--15B~--15B~--15B~--15B~--15-13--|
|------—--------------------------------------------|
|---------------------------------------------------|
|------------------—--------------------------------|
|------------------—--------------------------------|

|---------------------------------------------------|
|-----13~~/------13----15/16/15-13----13~~13~13-13--|
|--14----—---/14----14-------------14---------------|
|---------------------------------------------------|
|------------------—--------------------------------|
|------------------—--------------------------------|

|--13-12--------------------------------------------|
|--------13---------------------------13-13~~/------|
|------—----12~~12-12-13~~13-12-13/14---------------|
|---------------------------------------------------|
|------------------—--------------------------------|
|------------------—--------------------------------|

|---------------------------------------------------|
|------13---16-13-15----13-11-8---------------------|
|--/14---14-—--------14---------10-10FB10p8-10------|
|----------------------------------------------10---|
|------------------—--------------------------------|
|------------------—--------------------------------|

|---------8---------8-------8----11--8----8~~8-11-8-|
|-----------8—11FB-(8)--------8--10----11-----------|
|--8-10FB---—----------10FB-------------------------|
|---------------------------------------------------|
|------------------—--------------------------------|
|------------------—--------------------------------|

|--10----8~~8~~8/-----------------------------------|
|-----10--------------------------------------------|
|------—-----------------------10~~10~~12-10--------|
|------------------------10h12----------------------|
|------------------10h12—---------------------------|
|------------------—--------------------------------|

|---------------------------------------------------|
|---------------------------------------------------|
|--12FB12p10-12~~10/---—------------------12~~12/---|
|-----------------------------------12-14-12~~12/---|
|------------------—---10~~10-12/14-----------------|
|------------------—--------------------------------|


END :


|---------------------------L-----------------------|
|--6---6--6-----4----6----8--E----------------------|
|--5---5-—5-----5----7----9---T-R-------------------|
|--7---7--7-----6----8----10-----I------------------|
|--5------5-----6----8-—--10------N-----------------|
|---------------4---—6----8--------G----------------|






Guide to Tablature

B:1/2 bend
FB:full bend
h:hammer on
p:pull off
/:slide
~:vibrato
PM:Palm Muted
.:dotted note
X:note played with heavy damping
LR:Let Ring

Popa Chubby – “Why I Can't Have You”
Transcription: Frédéric Winne for http://www.brusselscityblues.fr.tc

choko_tof@yahoo.fr
Try the Brussels City Blues
Добавлено: 31.07.2012
Другие материалы по этой песне:
  • Аккорды и текст

Страница создана 31.07.2012
http://primanota.ru/popa-chubby/why-i-cant-have-you-chords.htm
Привет, Гость.
Предлагаем пройти революционный курс по гитаре.
Подарок от PrimaNota.Ru, забирай!