PrimaNota.ru - самый крупный в мире бесплатный архив песенных текстов, аккордов, табулатур и нот


Popa Chubby - White Devil - таба, видео

Регистрация Запомнить меня
Войти через:  Facebook Google Twitter Vk Yandex Mail.ru

Popa Chubby - White Devil - таба, видео

Печатать
Просмотров: 163
White Devil
(Popa Chubby – « Brooklyn Basement Blues »)






Chords :

Em – B7
Em – G – B7
Em – G – A – C 
Em – B7 – Em

Bridge: 

A – B
A – B
A – B

F#m – C#7
F#m – A – C#7
F#m – A – B – D
F#m – C#7 – F#m 


Intro :


|----------------0-L------------------2-(2)------0-L----|
|----------------0-R------------------0--0-------0-R----|
|------—---------0----------------2-2-2--2-------0------|
|-----------2-L-------------------1-1-------2-L---------|
|-----------2-R----—---0-1--0-0-2-2-2-------2-R---------|
|--0—2B-2B--0-------—-----------------------0-----------|

|--0-0-0-L-------------------0-L-------7--9-7h9p7-------|
|--0-0-0-R-------------------0-R------------------7/(0)-|
|--0-0-0--—-0----------------0-----2/8------------------|
|-----------2-----------2-L-----------------------------|
|-----------2-------—---2-R-----------------------------|
|--------------0—2B-2B--0-------------------------------|

|-------0-L--------0-L----------------------------------|
|-------0-R--------0-R----------------------------------|
|------—0-----2/4---------------------------------------|
|--2-L---------------------------2----------------------|
|--2-R---------------—-----------2----------------------|
|--0------------—-------0-2B-2B--0----------------------|


Solo 1 :


|-------------------------------------------------------|
|-------------------------------------------------------|
|------—------------------------------------------------|
|--/2-2-2-2-2-2/4-2-1--1-2--4B4--2-2-2-------2---0h2----|
|------------------—---------------------2-2-2--Trill---|
|--------------—-------------------------0-0-0----------|

|-------------------------------------------------15----|
|--15FB---15FB15p12-------------------------------------|
|------—------------14FB14p12-14FB14p12-14--12—14FB—12/-|
|-----------------------------------------14------------|
|------------------—------------------------------------|
|--------------—----------------------------------------|

|------------------^---7-11-7-----------0-----0-----0---|
|-----------------R|---7-----7--------------------------|
|--0----—---------A|--8-------8-----4/9---/11---/12-----|
|--0----------7---K|-9---------9------------------------|
|--0------6-9-----E|—-----------9/----------------------|
|----/7-7---------—-------------------------------------|
     |    PM    |
|------0-----0-----0-----0-----0—-17B-17--15------------|
|--------------------------------------------17~~-------|
|--/14---/16-—-/18---/19---/21--------------------------|
|-------------------------------------------------------|
|------------------—------------------------------------|
|--------------—----------------------------------------|

|--15-17-17B17p15-17--15--------------------------------|
|-------------------17---17p15--15-17FB—-17FB*----------|
|------—----------------------16------------------------|
|-------------------------------------------------------|
|------------------—------------------------------------|
|--------------—----------------------------------------|
*A.H.

|-------------------------------------------------------|
|--17FB1715-17-17~~-17-15-------------------------------|
|------—-----------------16—-14B14p12-14-12-------------|
|-------------------------------------------14/---------|
|------------------—------------------------------------|
|--------------------—----------------------------------|

|-------------------------------------------------------|
|--------------12~~-------------------------------------|
|------—------------------------------------------------|
|--2-L----/13-------------------------------------------|
|--2-R---------------—----------------------------------|
|--0------------—---------------------------------------|


Solo 2 :


|--15FB—-15~~-15-12h15p12---12---12---------------------|
|------------------------15—--15B—-15-12----12----------|
|------—---------------------------------14----14/15----|
|-------------------------------------------------------|
|------------------—------------------------------------|
|--------------—----------------------------------------|

|-------------------------------------------------------|
|-------------------------------------------------------|
|--14-12-14-12-14—---12-12-14-12---12-------------------|
|-----------------14-------------14--14-12--12----------|
|------------------—----------------------14---14-13----|
|--------------—----------------------------------------|

|-------------------------------------------------------|
|---------------------14---12----------15---------------|
|------—--------------14---12—----14FB----14BR-12h14p12-|
|--------------------(14)-(12)----14FB------------------|
|--12B12-10-12-12/14-------------—----------------------|
|--------------—----------------------------------------|

|-------------------------------------------------------|
|---------X—-12h15~~--12h15p12----12/-------------------|
|-----12-—X--------------------14-----------------------|
|--14-----X----------------------------X--X-------------|
|---------X---------—------------------X--X-------------|
|--------------—-----------------------X—-X-------------|

|-----------------------------0-0--------5-7-7/---------|
|------------------------0--3-----3—-5/7----------------|
|------—----------2----2--------------------------------|
|----1--4---1--4-----4----------------------------------|
|--2----------------—-----------------------------------|
|--------------—----------------------------------------|
 |        PM       |
|------0----0----0--------------------------------0-----|
|--0/5---/7---/8---/7-5h7p5/3—5p3p0-----3---------------|
|------—----------------------------2/4---4/2p0---------|
|-----------------------------------------------2-------|
|------------------—------------------------------------|
|--------------—----------------------------------------|

|-------3-5-5B(pre-bend)-5--3----5B5B5-3----------------|
|-----5-----------------------5----------5~~/-0---------|
|--/4----—------------------------------------0---------|
|---------------------------------------------0---------|
|------------------—------------------------------------|
|--------------—----------------------------------------|

|--0-7p0-9p0-12p0-14p0-15p0-14p0-12p0-------------------|
|--------------------------------------12---------------|
|------—-------------------------------12----12---------|
|--------------------------------------12-14-12h14p12---|
|------------------—------------------------------------|
|--------------—----------------------------------------|

|--------------------0-------0--------------------------|
|--12---14-12--------0----------------------------------|
|--12---14-12—-------0---2/4---4/2p0--------------------|
|--12---14-12---2-2------------------2-----------2------|
|---------------2-2--—---------------------------2------|
|--------------—0-0---------------------0-2B-2B—-0------|


Solo Bridge :


|--------------------------------------------0----------|
|-------------------------------------------------------|
|--2-2-2-2-2—2--1-2-3-4—-4--4----4---2-2-2-2---2—-3--4--|
|------------------------------4------------------------|
|------------------—------------------------------------|
|--------------—----------------------------------------|

|-------7--7-------------------------------------15-----|
|-------------10-10-10-10-10-9-10-11-12—-12--12-----12~~|
|--4--4---—---------------------------------------------|
|-------------------------------------------------------|
|------------------—------------------------------------|
|--------------—----------------------------------------|

|--------------------12-14-15-15/17-17------------------|
|--12-13-13-12-13-15-----------------------19~~---------|
|------—------------------------------------------------|
|-------------------------------------------------------|
|------------------—------------------------------------|
|--------------—----------------------------------------|


Solo 3 :


|-------------------------------------------------------|
|--------------5-2-----------------5---5----4--2--------|
|--4FB~~--4FB--—---4-2—4FB4p2-4--/6--/6--4--4--2--4-----|
|-------------------------------------------------------|
|------------------—------------------------------------|
|--------------—----------------------------------------|

|------5-7-5—-7FB7--5--------5-7-7B-7-5-----------------|
|--7~~----------------7~~--7------------7-7—-6~~-/--0---|
|------—--------------------------------------------0---|
|---------------------------------------------------0---|
|------------------—--------------------------------0---|
|--------------—----------------------------------------|

|-------2-5-2-4-2-2h4p2---2---------5---7---8---9-9/----|
|-----2-----------------4---7~~-7-----7---7---7---------|
|--4B----—----------------------------------------------|
|-------------------------------------------------------|
|------------------—------------------------------------|
|--------------—----------------------------------------|

|--/14-14~~-14----------14------------------------------|
|--------------17-14------------------------------------|
|------—-------------16----16FB16p14----16----14--------|
|------------------------------------16----16-----------|
|------------------—------------------------------------|
|--------------—----------------------------------------|

|-------17-17-17----------------------------------------|
|-------------------------17FB17-14---------------------|
|--16FB----—-----16BR--14-----------16FB16p14-----------|
|-------------------------------------------------------|
|------------------—------------------------------------|
|--------------—----------------------------------------|

|------------------------------------17p14-17p14-14-----|
|-------------------------------------------------------|
|--16FB16p14----14—16-16FB16p14-16~~--------------------|
|------------16-----------------------------------------|
|------------------—------------------------------------|
|--------------—----------------------------------------|

|-------------------------------------------------------|
|--17p14-----------------------16--14-(14)/-------------|
|------—-16-14—16FB16p14-16-16-16--14—-14-/-------------|
|----------------------------------------------------2--|
|------------------—---------------------------------2--|
|--------------—----------------------------0--2--1--0--|


Guide to Tablature

B:1/2 bend
FB:full bend
5FB5:bend and release
5BR: bend released
h:hammer on
p:pull off
/:slide  
~:vibrato
Trill: ligado or "slur" movements both up and down
PM:Palm Muted
.:dotted note
LR:let ring
X:note played with heavy damping
A.H.:artificial harmonic 

---------------------------------------------
“White Devil” by Popa Chubby, as heard on the album “Brooklyn Basement Blues”

Transcription: Frédéric Winne  - choko_tof@yahoo.fr  - http://www.brusselscityblues.fr.tc
Try the Brussels City Blues !
Добавлено: 11.04.2012
Другие материалы по этой песне:
  • Аккорды и текст

Страница создана 11.04.2012
http://primanota.ru/popa-chubby/white-devil-chords.htm
Привет, Гость.
Предлагаем пройти революционный курс по гитаре.
Подарок от PrimaNota.Ru, забирай!