PrimaNota.ru - самый крупный в мире бесплатный архив песенных текстов, аккордов, табулатур и нот


Popa Chubby - Sweat - бас-таба, видео

Регистрация Запомнить меня
Войти через:  Facebook Google Twitter Vk Yandex Mail.ru

Popa Chubby - Sweat - бас-таба, видео

Печатать
Просмотров: 56


Sweat (Popa Chubby - « Booty and the Beast »)


Chords :


E - G - C - B7(9)


Intro (bass file):


|-----------------------------------------------------------|*
|-----------------------------------------------------------|
|-----------------------------------------------------------|
|-----------------------------------------------------------|
|--------------2---3---3--2---------------------------------|
|--0---2---3-------------------0--3--2----------------------|

*played 3 times

|-----------------12/----12-12-12-------12-12---------------|
|------/15--/15---12/---------------------------------------|
|------/16--/16-------------12-14/15p12-14-12-----------12--|
|--/14-------------------14--------------------14-12-14---14|
|-----------------------------------------------------------|
|-----------------------------------------------------------|

|-----------------------------------------------------------|
|-----15FB--15--12------------------------8~~-7-7-8-8-8/10--|
|-------------------14B14-12~~---12------/9~~---------------|
|-----------------------------14---14-----------------------|
|-----------------------------------------------------------|
|-----------------------------------------------------------|

|--12.-7--7--5--5--2--2-2/10--7-7-7-7-5--5-3--3-2----------|
|--12.-7--7--5--5--2--2-2/10--7-7-7-7-5--5-3--3-2---0---LR-|
|----------------------------------------------------0--/9--|
|----------------------------------------------------0------|
|-----------------------------------------------------------|
|-----------------------------------------------------------|

|-----------------------------------------------------------|
|---------------------------15h17-15h17-15h17-15h17-15h17---|
|--7--/9--/11--/12--/16------------------------------------|
|----LET RING ALL LONG--------------------------------------|
|-----------------------------------------------------------|
|-----------------------------------------------------------|

|-----------12-12-12----12-12-12----------------------------|
|--20-20/---------------------------------------------------|
|--------------12-14/15-14-12-12--15-14----12.--------------|
|-----------14--------------------14-13--14-----------------|
|-----------------------------------------------------------|
|-----------------------------------------------------------|


|--------12---------------------------------L---------------|
|------12---14--14-12-----------X--------15--E--------------|
|----12--------------14-12------X--------14---T-R-----------|
|--14---------------------14----X-----13---------I----------|
|-----------------------------------14------------N---------|
|--------------------------------------------------G--------|

Rythm guitar :


|--------0-------3--------------------------2---------------|
|--------0-------3-----(3)----(3)----(2)----2---------------|
|-----------------------3------3------2-----2---------------|
|-(2)-------------------2------2------1---------------------|
|--2--------------------3------3------2---------------------|
|--0--------3-----------------------------------------------|


Chorus :


|----------------------------------L------------------------|*
|--9----9----7----7----6----6----5--E-----------------------|
|--9----9----7----7----6----6----5---T--R-------------------|
|--9----9----7----7----6----6----5-------I------------------|
|--7----7----5----5----4----4----3--------N-----------------|
|------------------------------------------G----------------|
*played 3 times

|---------------------------L-------------------------------|
|--9/---------------------15--E-----------------------------|
|--9/---------------------14---T-R--------------------------|
|--9/------------------13---------I-------------------------|
|--7/---------------14-------------N------------------------|
|-----------------------------------G-----------------------|

Solo :


|-----------------------------------------------------------|
|-----/15-15--12/----------/15-/15/---12/--------(7)--------|
|-----/16-16--12/----------/16-/16/---12/-----/9--7---------|
|--14---------------------------------12/------------5/7--5-|
|-----------------------------------------------------------|
|-----------------------------------------------------------|

|-----------------------------------------------------------|
|--7h8p7---7-8-10/12-12h13p12--14-12-12-13-15/17-17h18p17---|
|--------9--------------------------------------------------|
|-----------------------------------------------------------|
|-----------------------------------------------------------|
|-----------------------------------------------------------|

|-----------------------------------15-15--15/12------------|
|-----17-18-20/22-22-------22-22----15h17--15/12------------|
|--19----------------19-19-----------------------14p12--12--|
|-----------------------------------------------------14----|
|-----------------------------------------------------------|
|-----------------------------------------------------------|

|----------12---12-15FB-15~~-12-15-12h15p12-12----------12--|
|--------12--14--------------------------------15-12--------|
|--12-14---------------------------------------------14-----|
|-----------------------------------------------------------|
|-----------------------------------------------------------|
|-----------------------------------------------------------|

|-----------------------------------------------------------|
|-----------------------------------------------------------|
|--14B14p12-14----12-14-14FB-14FB-14FB-14FB-14FB~~14p12-----|
|--------------14-------------------------------------------|
|-----------------------------------------------------------|
|-----------------------------------------------------------|

|-----------------------------------------------------------|
|---------------------------(12)------(12)----------15--15--|
|--14PB14p12-14----12--------12--------12-12-11-/-16--16----|
|---------------14--------------14~~14----------------------|
|---------------------12h14---------------------------------|
|-----------------------------------------------------------|

|-------------------------------LR----------LR--------------|
|--15--15--15-------14--14--14--12------14--12--------------|
|--------16--(16)/14--14--14----12------14--12--------------|
|------------------------------------14---------------------|
|-----------------------------------------------------------|
|-----------------------------------------------------------|

|----------12---------------------------------L-------------|
|--------12--14--14-12---------------------15--E------------|
|------12--------------14-12---------------14---T--R--------|
|----14----------------------14---------13----------I-------|
|----------------------------LR------14--------------N------|
|-----------------------------------------------------G-----|







Guide to tablature

b:1/4 bend
B:1/2 bend
FB:full bend
17FB17:full bend and release
PB: pre-bend
17PB17: pre-bend and release
h:hammer on
p:pull off
/:slide  
~:vibrato
PM:Palm Muted
.:dotted note
LR:Let Ring





---------------------------------------------

Popa Chubby - Sweat  as heard on « Booty and The Beast » (1995)
Transcription: Frйdйric Winne 
for Sam's Popa Chubby Site http://www.popachubby.net

e-mail: choko_tof@yahoo.fr 
Try the Brussels City Blues  


Добавлено: 21.12.2013
Другие материалы по этой песне:

Страница создана 02.03.2012
http://primanota.ru/popa-chubby/sweat-chords.htm
Привет, Гость.
Предлагаем пройти революционный курс по гитаре.
Подарок от PrimaNota.Ru, забирай!