PrimaNota.ru - самый крупный в мире бесплатный архив песенных текстов, аккордов, табулатур и нот


Popa Chubby - Sally Likes To Run - таба, видео

Регистрация Запомнить меня
Войти через:  Facebook Google Twitter Vk Yandex Mail.ru

Popa Chubby - Sally Likes To Run - таба, видео

Печатать
Просмотров: 101
Sally Likes To Run
(Popa Chubby – « Deliveries After Dark » )



|-----------------------------------------------------|
|-----------------------------------------------------|
|----2-LET-----—--2-LET--------2-LET--------2-LET-----|
|----2-RING-------2-RING-------2-RING-------2-RING----|
|----0------------0------—-----0------------0---------|
|--X---------0-3b--—------0-3b---------0-3b-----------|

|----------------------------------------------3------|
|---------------7b~~----------------------7b~~-3-LET--|
|-------2-LET--—7b~~-----5-5--------2-LR--7b~~-4-RING-|
|-------2-RING-----------5-5--------2----------5------|
|-------0------------5h7---—--------0----------X------|
|--0-3b-----------—------------0-3b------------3------|

|----------------------------------------------3------|
|---------------7b~~----------------------7b~~-3-LET--|
|-------2-LET--—7b~~-----5-5--------2-LR--7b~~-0-RING-|
|-------2-RING-----------5-5--------2----------0------|
|-------0------------5h7---—--------0----------X------|
|--0-3b-----------—------------0-3b------------3------|

|----------------------------------------------3------|
|--3-3----------7b~~---------------------7b~~--3-LET--|
|--2-2-2-LET----7b~~-—---5-5-------2-LR—-7b~~--0-RING-|
|--0-0-2-RING------------5-5-------2-----------0------|
|------0-------------5h7---—-------0-----------X------|
|--------------—--------------0-3b-------------3------|

|----------------------------------------------3------|
|---------------7b~~----------------------7b~~-3-LET--|
|-------2-LET--—7b~~-----5-5--------2-LR--7b~~-0-RING-|
|-------2-RING-----------5-5--------2----------0------|
|-------0------------5h7---—--------0----------X------|
|--0-3b-----------—------------0-3b------------3------|

|--2-2-2-2--------------------------------------------|
|--3-3-3-3--------------------------------------------|
|--2-2-2-2--2----—------------------------------------|
|--0-0-0-0--2---2*--2-4-4-2-2-4---7--7-9-9-7-7-9------|
|----------(0)--0---0-0-0-0-0-0---5--5-5—5-5-5-5-ETC.-|
|--------------—--------------------------------------|
*shuffle in A & D all long


Riff chorus :


|-----------------------------------------------------|
|-----------------------------------------------------|
|----------—------------------------------------------|
|--/7---------------------------------7--/7-----------|
|-----4--5--6--7-/7-10-7-10p7-10p7-10-------4--5--6---|
|--------------—--------------------------------------|


|-----------------------------------------------------|
|-----------------------------------------------------|
|----------—------------------6-----------------------|
|-------------------------7-----3--4--5-/6-/6-9-6-9p6-|
|--7-/7-10-7-10p7-10p7-10--------------—--------------|
|--------------—--------------------------------------|

|-----------------------------------------------------|
|-----------------------------------------------------|
|--------6--/6—---------------------------------------|
|--9p6-9-------3--4--5-/6-----------------------------|
|-------------------------—/7-7--/10-10--/12-12-------|
|--------------—--------------------------------------|


Bridge :


|----------------------------------------------3------|
|----------------------------------------------3-LET--|
|----------—--------------2-LET---------2-LET--0-RING-|
|-------------------------2-RING-2-2----2-RING-0------|
|--7-7-7--/10--/12-12-10--0------0-0-3b-0-—----X------|
|--------------—-------------------------------3------|

|-------------------------------3------(2)(2)(2)(2)---|
|--3-3--------------------------3-LET---3--3--3--3----|
|--2-2--2-LET----—-------2-LET--0-RING--2--2--2--2----|
|--0-0--2-RING-----------2-RING-0-------0--0--0--0----|
|-------0------0-3bp0-3b-0------X—--------------------|
|--------------—----------------3---------------------|

|--3---(2)(2)(2)(2)-3---(2)(2)(2)(2)-3-3--------------|
|--3----3--3--3--3--3----3--3--3--3--3-3--------------|
|--0----2--2--2—-2--0----2--2--2--2--0-0--------------|
|--0----0--0--0--0--0----0--0--0--0--0-0-2------------|
|----------------------—-----------------2------------|
|--------------—-------------------------0------------|


Solo : (in the key of E!)


|--17FB—17FB~~-17-17FB-17FB-17-15---------15----------|
|---------------------------------17-15-17-—17p15-17/-|
|----------—------------------------------------------|
|-----------------------------------------------------|
|----------------------—------------------------------|
|--------------—--------------------------------------|

|------------------------------------------------12---|
|--------15----15---15------------------------12------|
|--15/16----16----16—--16/14-12h14p12---12/13---------|
|-------------------------------------14--------------|
|----------------------—------------------------------|
|--------------—--------------------------------------|

|--15FB-15~~-12-15-12h15p12-12-------------12---------|
|------------------------------15FB~~-14B-----15p12---|
|----------—--------------------------14B-------------|
|-------------------------------------14B-------------|
|----------------------—------------------------------|
|--------------—--------------------------------------|
|-----------------------------------------------------|
|----12-----------------------------------------------|
|--14--14-14FB14p12--14-12h14--—12------------14/-----|
|------------------14---------14--14-12--12-14--------|
|----------------------—---------------14-------------|
|--------------—--------------------------------------|

|------------------------------------5----3---2-------|
|--------12------10------9-----7------------------5---|
|--11/13----13/11---11/9-—-9/7---7/5---/3--/2--/6-----|
|-----------------------------------------------------|
|----------------------—------------------------------|
|--------------—--------------------------------------|

|----------------------7FB-7FB--7-6-5-----------------|
|--7~~-7B-7B-7B7p5---5----------------8-8p5---5~~-5---|
|----------—-------6------------------------6---------|
|-----------------------------------------------------|
|----------------------—------------------------------|
|--------------—--------------------------------------|

|-----------------7---7---7---7-------------12--12----|
|------5----5/7FB-7FB-7FB-7FB-7FB-7FB7-/-14---14------|
|--4/6---/6-----—-------------------------------------|
|-----------------------------------------------------|
|----------------------—------------------------------|
|--------------—--------------------------------------|

|--15p12—-15p12—-15p12—-15p12--12—-15p12--12—-15p12---|
|-------12-----12-----12-----12--12-----12--12--------|
|----------—------------------------------------------|
|-----------------------------------------------------|
|----------------------—------------------------------|
|--------------—--------------------------------------|

|----12—-15p12--12--15p12--12--15p12—-15FB-15~~-12-15-|
|--12--12-----12--12-----12--12-----12----------------|
|----------—------------------------------------------|
|-----------------------------------------------------|
|----------------------—------------------------------|
|--------------—--------------------------------------|

|--12h15p12--12---------------------------------------|
|----------15---15FB-15FB-15FB-/----------------------|
|----------—------------------------------------------|
|-----------------------------------------------------|
|----------------------—------------------------------|
|--------------—--------------------------------------|







Guide to Tablature

b:1/4 bend
B:1/2 bend
FB:full bend
5FB5:bend and release
5FB5p0:bend, release and pull off 
h:hammer on
p:pull off
/:slide  
~:vibrato
PM:Palm Muted
.:dotted note
X:note played with heavy damping 

---------------------------------------------
“Sally Likes To Run” by Popa Chubby, as heard on the album “Deliveries After Dark”

Transcription: Frederic Winne 
choko_tof@yahoo.fr – http://www.brusselscityblues.fr.tc
Добавлено: 13.03.2012
Другие материалы по этой песне:
  • Аккорды и текст

Страница создана 13.03.2012
http://primanota.ru/popa-chubby/sally-likes-to-run-chords.htm
Привет, Гость.
Предлагаем пройти революционный курс по гитаре.
Подарок от PrimaNota.Ru, забирай!