PrimaNota.ru - самый крупный в мире бесплатный архив песенных текстов, аккордов, табулатур и нот


Popa Chubby - Long deep hard and wide - таба, видео

Регистрация Запомнить меня
Войти через:  Facebook Google Twitter Vk Yandex Mail.ru

Popa Chubby - Long deep hard and wide - таба, видео

Печатать
Просмотров: 79


Long Deep Hard and Wide
(Popa Chubby - « Stealing The Devil's Guitar » )






Riff :



|------------------------------------------------------|
|------------------X--X--X------------------X--X--X----|
|------------------X--X--X------------------X--X--X----|
|------------2-----X--X--X------------2-----X--X--X----|
|------------------X--X--X------------------X--X--X----|
|--0-0--0-3--------X--X--X--0-0--0-3--------X--X--X----|

|------------------------------------------------------|
|------------------X--X--X------------------X--X--X----|
|------------2-----X--X--X------------------X--X--X----|
|------------------X--X--X------------2-----X--X--X----|
|--0-0--0-3--------X--X--X------------------X--X--X----|
|------------------X--X--X--0-0--0-3--------X--X--X----|

|------------------------------------------------------|
|------------------X--X--X-----------------------------|
|------------------X--X--X-----------------------------|
|------------2-----X--X--X-----------------------------|
|------------------X--X--X--2-2--0-1-2-----------------|
|--0-0--0-3--------X--X--X-----------------------------|


|------------------------------------------------------|
|------------------------------------------------------|
|--2B-2p0-2B-0-------------------------------2-L-E-T---|
|---------------0---2---0h2-2-0--------------1-R-I-N-G-|
|--------------/TRILL----------2-0------0-1-2---------|
|-----------------------------------3B-0---------------|



Solo :

(With Wah effect)

|--17FB----17FB-17FB~~----17FB--17FB-17FB-17FB-17FB----|
|------------------------------------------------------|
|------------------------------------------------------|
|------------------------------------------------------|
|------------------------------------------------------|
|------------------------------------------------------|

|--17FB-17FB~~--17FB17-17FB-17FB~~-17FB-17FB-17FB------|
|------------------------------------------------------|
|------------------------------------------------------|
|------------------------------------------------------|
|------------------------------------------------------|
|------------------------------------------------------|

|--17FB~~-15-17-17B-17-15----17FB~~-17-15--------------|
|-------------------------17--------------17-----------|
|------------------------------------------------------|
|------------------------------------------------------|
|------------------------------------------------------|
|------------------------------------------------------|

|------------------------------------------------------|
|------------------------------------------------------|
|--16-15-14--12----------------------------------------|
|----------------14--12--12---14-----------------------|
|------------------------TRILL/----12-14/-------------|
|------------------------------------------------------|






Guide to Tablature

B:1/2 bend
FB:full bend
h:hammer on
p:pull off
/:slide
~:vibrato
PM:Palm Muted
.:dotted note
X:note played with heavy damping

---------------------------------------------
Transcription: Frйdйric Winne

choko_tof@yahoo.fr - http://www.popachubby.net
Try the Brussels City Blues  


Добавлено: 09.01.2014
Другие материалы по этой песне:
  • Аккорды и текст

Страница создана 09.01.2014
http://primanota.ru/popa-chubby/long-deep-hard-and-wide-chords.htm
Привет, Гость.
Предлагаем пройти революционный курс по гитаре.
Подарок от PrimaNota.Ru, забирай!