PrimaNota.ru - самый крупный в мире бесплатный архив песенных текстов, аккордов, табулатур и нот


Popa Chubby - Life is a beatdown - таба, видео

Регистрация Запомнить меня
Войти через:  Facebook Google Twitter Vk Yandex Mail.ru

Popa Chubby - Life is a beatdown - таба, видео

Печатать
Просмотров: 154


Life is a Beatdown
(Popa Chubby - «Peace, Love and Respect» )






Chords :




Lam / F / G / Lam
Lam / F / D - G - Lam




Solo 1 :




|--------------------------------------5------------|
|----------------------1-0-----------------8--6~~---|
|--2-2-2-2---2---2-2-2-----0-2----------------------|
|----------2---------------------7-7-7--------------|
|---------------------------------------------------|
|---------------------------------------------------|

|---------------------------------------------------|
|--6p5------------------------------------------1-0-|
|------7B7p5-7-5------------2-2-2-2---2---2-2-2-----|
|-----------------7-5-7~~/----------2---------------|
|---------------------------------------------------|
|---------------------------------------------------|

|---------------------------------------------------|
|--------8FB8-8FB--8-5-8--8-5---5--------7-(5)------|
|--0-2~~----------------------7---7B7p5--7--5-------|
|---------------------------------------------------|
|---------------------------------------------------|
|---------------------------------------------------|

|---------------------------------------------------|
|---------------5-----------------------------------|
|---------------5-----------------------------------|
|--7--5--7---7--------------------------------------|
|---------------------------------------------------|
|---------------------------------------------------|





Solo 2 :




|---------------------------------------------------|
|--X-X-X--------------------------------------------|
|--X-X-X-------------4-5-4~~--7B7p5-7-5---------5---|
|--X-X-X--7-7-7-7-7---------------------5-5-7-7---7-|
|---------------------------------------------------|
|---------------------------------------------------|

|--5-5----------------------------------------------|
|------8--8-8--5--5-5-------------------------------|
|---------------------7--7-7-5-5/4-5-4h5p4-5-4------|
|----------------------------------------------7~~/-|
|---------------------------------------------------|
|---------------------------------------------------|

|---------------------------------------------------|
|--9-10/9p6-9--6p5-5-6p5----------------------------|
|------------------------7--7-5-4-5--5p4---4---4----|
|----------------------------------------7---7------|
|---------------------------------------------------|
|---------------------------------------------------|

|------------------------------8--------8-10FB-10FB-|
|----------------------------8--10~~-10-------------|
|--5-7-4-5-4-5~~4~~-------/9------------------------|
|-------------------7~~/----------------------------|
|---------------------------------------------------|
|---------------------------------------------------|

|--10FB-10FB-10FB-10FB10p8-10-8----8----------------|
|-------------------------------10---10p8---8---8---|
|-----------------------------------------9---9-----|
|---------------------------------------------------|
|---------------------------------------------------|
|---------------------------------------------------|

|--8---------^-12-11-10h11p10/8-10-8---------8-10---|
|----8-10~~--|-R---------------------10-10~~--------|
|------------|-A------------------------------------|
|------------|-K------------------------------------|
|------------|-E------------------------------------|
|---------------------------------------------------|

|--10FB-8-------------5-----5-8-5---5---------------|
|---------10~~/-----5---5-8-------8---8p5---5-------|
|----------------/5-----------------------7---7B7p5-|
|---------------------------------------------------|
|---------------------------------------------------|
|---------------------------------------------------|

|---------------------------------------------------|
|--------------------5-L-E-T------------------------|
|--7-5-7--7-5-7-5----5-------R-I-N-G----------------|
|-----------------7---------------------------------|
|---------------------------------------------------|
|---------------------------------------------------|





Guide to Tablature

b:1/4 bend
B:1/2 bend
FB:full bend
5FB5:bend and release
5FB5p0:bend, release and pull off
h:hammer on
p:pull off
/:slide
~:vibrato
PM:Palm Muted
.:dotted note
X:note played with heavy damping

---------------------------------------------
"Life is a Beatdown" by Popa Chubby, as heard on the album "Peace, Love and Respect"

Transcription: Frйdйric Winne

choko_tof@yahoo.fr
Try the Brussels City Blues  


Добавлено: 24.10.2013
Другие материалы по этой песне:
  • Аккорды и текст

Страница создана 24.10.2013
http://primanota.ru/popa-chubby/life-is-a-beatdown-chords.htm
Привет, Гость.
Предлагаем пройти революционный курс по гитаре.
Подарок от PrimaNota.Ru, забирай!