PrimaNota.ru - самый крупный в мире бесплатный архив песенных текстов, аккордов, табулатур и нот


Popa Chubby - Ive Been Loving You Too Long - таба, видео

Регистрация Запомнить меня
Войти через:  Facebook Google Twitter Vk Yandex Mail.ru

Popa Chubby - Ive Been Loving You Too Long - таба, видео

Печатать
Просмотров: 133
I've Been Loving You Too Long
(Popa Chubby – « Brooklyn Basement Blues » )



Chords :

A / E / A / E
A / C# / D / F
A / E / A / E 

End : 

Bb / F
Bb / F#


Intro :



|------------------------------------------------------|
|--------2h3p2-----------2h3p2-----------2h3p2---------|
|------2—------2-------2-------2-------2-------2-------|
|----2-----------2---2-----------2---2-----------2-----|
|--0---------------0-—-------------0-------------------|
|--------------—---------------------------------------|

|------------------------------------------------------|
|-----5----------7--5---L-----2h3p2--------------------|
|--/6----6\5h6—--7— 5h6-R-----------2------E-T-C.------|
|-------------------------------------2----------------|
|------------------—--------------------0--------------|
|--------------—---------------------------------------|


Solo :

(Slide)
 
|--4/5-/-9-9~~-9/8/9-9-9—4/5-4/5-----------------------|
|--------------------------------5~~/------9~~--/9-/8--|
|------—-----------------------------------------------|
|---------------------------------------/9-------------|
|------------------—-----------------------------------|
|--------------—---------------------------------------|

|------------------------------------------------------|
|----4/5-----------------------------------------------|
|--9----—5/6--------/-14~~-14~~/------------/-14~~-/---|
|------------6/7\---/-14~~-14~~/------------/-14~~-/---|
|------------------—-----------------------------------|
|--------------—------------------/9-/7-/5-------------|

|----------------------------------------9~~9~~------9-|
|--/9--9~~---9~~---9~~---9~~--------7/10--------7/10---|
|--/9-----9~~---9~~—--9~~---9~~------------------------|
|-------------------------------7/---------------------|
|------------------—-----------------------------------|
|--------------—---------------------------------------|

|-----/12-/12-9~~/-----13~~--13-12-13~~--/16-/16-13~~/-|
|--10--------------/13---------------------------------|
|------—-----------------------------------------------|
|------------------------------------------------------|
|------------------—-----------------------------------|
|--------------—---------------------------------------|

|----------------------------------------------17~~/---|
|------19~~-19/16—-15/19~~--19/16-15/19~~/-------------|
|------—-----------------------------------/17---------|
|--/19-------------------------------------------------|
|------------------—-----------------------------------|
|--------------—---------------------------------------|

|--15-14-/17~~-/15-14-/17~~-12/13-12/13----------------|
|---------------------------------------13/------10~~--|
|------—-----------------------------------------------|
|-------------------------------------------/10--------|
|------------------—-----------------------------------|
|--------------—---------------------------------------|

|------------------------------------------------------|
|--10/9---/10-------------------9~~-9/8/9---------0----|
|------—9------8/9-8/9--------------------8/9-----0----|
|----------------------9~~/--/9---------------9/--0----|
|------------------—-----------------------------------|
|--------------—---------------------------------------|

|------------------------------------------------------|
|--------14~~------14~~-----/9~~-----9~~----9~~-----/--|
|--/14~~----14~~—-----14~~-----9~~-----9~~----9~~---/--|
|--/14~~-------14~~--------------9~~-----9~~----9~~-/--|
|------------------—-----------------------------------|
|--------------—---------------------------------------|

|------------------------------------------------------|
|--------------------------9~~--8/9-9-8-7~~--5/2-------|
|--/14~~--13/14--—--/----------------------------------|
|--/14~~--------14~~/--7/9-----------------------------|
|------------------—-----------------------------------|
|--------------—---------------------------------------|

|------------------------------------------------------|
|------------------------------------------------------|
|--9/14~~----—-----------------------------------------|
|--9/14~~--13/14/13-11/14—-13/14/13-11/14--13/14/13----|
|------------------—-----------------------------------|
|--------------—---------------------------------------|

|------------------------------------------------------|
|------------------------------------------------------|
|------—-----------------------------------------------|
|--11/14—14~~/----8/9/8-6/9—-8/9/8-6/9—-8/9/8-6/9------|
|--------------7----—----------------------------------|
|--------------—---------------------------------------|

|------------------------------------------------------|
|-------------------------------14~~-16/17-14~~--------|
|------—------------------------14~~-------------------|
|--8/9/8-6/9—-9~~-9~~-9~~/--/14------------------------|
|------------------—-----------------------------------|
|--------------—---------------------------------------|

|------------------------------------------------------|
|--14/13-10--/14~~--9/10---------18~~-18~~------18~~/--|
|------—-----------------9—-14/18--------18~~-------/--|
|-------------------------------------------18~~----/--|
|------------------—-----------------------------------|
|--------------—---------------------------------------|

|------------------------------------------------------|
|-------19~~-19----19~~-19---19~~-19---19~~-19/--------|
|------—--------19---------19--------19----------------|
|--/19-------------------------------------------------|
|------------------—-----------------------------------|
|--------------—---------------------------------------|

|--11/13-12/13-13-------17~~17~~---17~~---17~~/--------|
|------------------13~~---------18-----18--------------|
|------—-----------------------------------------------|
|------------------------------------------------------|
|------------------—-----------------------------------|
|--------------—---------------------------------------|

|--21~~-21~~--21-21~~21-21/22-22/21-19-19~~19~~19~~----|
|------------------------------------------------------|
|------—-----------------------------------------------|
|------------------------------------------------------|
|------------------—-----------------------------------|
|--------------—---------------------------------------|

|--19-19-19/21-21/19-14/17-17~~-17~~/-------9----------|
|------------------------------------------------------|
|------—--------------------------------8/9------------|
|------------------------------------------------------|
|------------------—-----------------------------------|
|--------------—---------------------------------------|

|------------------------------------------------------|
|--10—9/10-9/10-------------10~~--------10~~-----------|
|------—--------9~~/------------10~~--------10~~-------|
|----------------------7/10*--------10~~--------10~~---|
|------------------—-----------------------------------|
|--------------—---------------------------------------|
*to F!
|------------------------------------------------------|
|--10~~10~~10~~-/----15~~------------------------------|
|------—--------/----15~~------------------------------|
|---------------/-15-15~~------------------------------|
|------------------—-----------------------------------|
|--------------—---------------------------------------|


Guide to Tablature

B:1/2 bend
FB:full bend
h:hammer on
p:pull off
/:slide  
~:vibrato
PM:Palm Muted
.:dotted note
X:note played with heavy damping 

---------------------------------------------
“I've Been Loving You Too Long” by Popa Chubby, as heard on the album “Brooklyn Basement Blues”

Transcription: Frédéric Winne - choko_tof@yahoo.fr
more tabs, pics, info and Popa bootlegs on http://www.brusselscityblues.fr.tc

Добавлено: 26.07.2012
Другие материалы по этой песне:
  • Аккорды и текст

Страница создана 26.07.2012
http://primanota.ru/popa-chubby/ive-been-loving-you-too-long-chords.htm
Привет, Гость.
Предлагаем пройти революционный курс по гитаре.
Подарок от PrimaNota.Ru, забирай!