PrimaNota.ru - самый крупный в мире бесплатный архив песенных текстов, аккордов, табулатур и нот


Popa Chubby - Godfather - таба, видео

Регистрация Запомнить меня
Войти через:  Facebook Google Twitter Vk Yandex Mail.ru

Popa Chubby - Godfather - таба, видео

Печатать
Просмотров: 259
The Godfather
(Popa Chubby – «May The Music Set You Free» release nov.07 )

as heard on http://www.myspace.com/popachubbyband  




Chords :


Em / Em / Em / Am / Em / Em / B / Em 



|-------------------------------------------------------------|
|-------------------------------------------------------------|
|------—------------------------------------------------------|
|-------------------------------------------------------------|
|------------------—------------------------------------------|
|--12-----/------0-(slow slide)---------—---------------------|
   |      PM      |   
|-------------------------------------------------------------|
|-------------------------------------------------------------|
|------—------------------------------------------------------|
|-------------------------------------------------------------|
|--8/9-9-9-9-9-9-9—-8/9--9-9--9-9-9—-8/9-9-9-9-9-9-9--9-X-----|
|----0-0-0-0-0-0-0----0—-0-0--0-0-0----0-0-0-0-0-0-0--0-X-----|


Theme :


|-----12-15-14~~-12-15-12-14-12-------------------------------|
|--12---------------------------13-15-13/12~~WHAMMY BAR-/-X---|
|------—--------------------------------------------------X---|
|---------------------------------------------------------X---|
|------------------—------------------------------------------|
|--------------—----------------------------------------------|

|-----12-15-14~~-12-15-12-14-12-------------------------------|
|--12---------------------------12-11-10~~WHAMMY BAR----------|
|------—------------------------------------------------------|
|-------------------------------------------------------------|
|------------------—------------------------------------------|
|--------------—----------------------------------------------|

|---------12-14~~WHAMMY BAR----------14~~WHAMMY BAR-----------|
|------12-------------------------12--------------------------|
|--/14----—--------------------12-----------------------------|
|--------------------------/14--------------------------------|
|------------------—------------------------------------------|
|--------------—----------------------------------------------|

|-------------------------------------------------------------|
|--------15-13~~-12-15-12-13-12-------------------------------|
|-----12-—----------------------12-11-9~~-/-------------------|
|--14---------------------------------------------------------|
|------------------—------------------------------------------|
|--------------—----------------------------------------------|

|-----12-15-14~~-12-15-12-14-12-------------------------------|
|--12---------------------------13-15-13/12~~WHAMMY BAR--/----|
|------—------------------------------------------------------|
|-------------------------------------------------------------|
|------------------—------------------------------------------|
|--------------—----------------------------------------------|

|-----12-15-14~~-12-15-12-14-12-------------------------------|
|--12---------------------------12-11-10~~WHAMMY BAR----------|
|------—------------------------------------------------------|
|-------------------------------------------------------------|
|------------------—------------------------------------------|
|--------------—----------------------------------------------|

|---------12-14~~WHAMMY BAR----------14~~WHAMMY BAR-----------|
|------12-------------------------12--------------------------|
|--/14----—--------------------12-----------------------------|
|--------------------------/14--------------------------------|
|------------------—------------------------------------------|
|--------------—----------------------------------------------|

|-------------------------------------------------------------|
|--------15-13~~-12-15-12-13-12-------------------------------|
|-----12-—-----------------------/12-11-9~~-------------------|
|--14---------------------------------------------------------|
|------------------—------------------------------------------|
|--------------—----------------------------------------------|

|-------------------------------------------------------------|
|--/5--5--4---------------------------------------------------|
|----—--------------------------------------------------------|
|-------------------------------------------------------------|
|------------5-/-9-9/5—5/-3-/2-2LR--5-5-5-5/9-9-9LR-9-9-9/5---|
|--------------—----------------------------------------------|

|-------------------------------------------------------------|
|-------------------------------------------------------------|
|------—----------------X-------------------------------------|
|-----------------------X-------------------------------------|
|--0-3-3-3-3-3-3-3-3-2--X-----—-------------------------------|
|--------------—----------------------------------------------|

|-----12-15-14~~-12-15-12-14-12-------------------------------|
|--12---------------------------13-15-13/12~~-15FB~~----------|
|------—------------------------------------------------------|
|-------------------------------------------------------------|
|------------------—------------------------------------------|
|--------------—----------------------------------------------|

|-----12-15-14~~-12-15-12-14-12-------------------------------|
|--12---------------------------12-11-10~~WHAMMY BAR----------|
|------—------------------------------------------------------|
|-------------------------------------------------------------|
|------------------—------------------------------------------|
|--------------—----------------------------------------------|

|---------12-14~~WHAMMY BAR----------14~~WHAMMY BAR-----------|
|------12-------------------------12--------------------------|
|--/14----—--------------------12-----------------------------|
|--------------------------/14--------------------------------|
|------------------—------------------------------------------|
|--------------—----------------------------------------------|

|-------------------------------------------------------------|
|--------15-13~~-12-15-12-13-12-------------------------------|
|-----12-—-------------------------14B14p12-14----------------|
|--14---------------------------------------------------------|
|------------------—------------------------------------------|
|--------------—----------------------------------------------|


Solo :


|-------------------------------------------------------------|
|-------------------------------------------------------------|
|--14B14p12-14B14p12-14B14p12-14B14p12-14B14p12-14B14p12------|
|-------------------------------------------------------------|
|------------------—------------------------------------------|
|--------------—----------------------------------------------|

|-----------------------15------------------------12------12--|
|-----------------------------------------------12--12-15B----|
|--14B14p12-14B14p12—14B--14B~~-12-14p12---12-14--------------|
|----------------------------------------14-------------------|
|------------------—------------------------------------------|
|--------------—----------------------------------------------|

|-----12-15-12-15p12---12---------------------------------15/-|
|--15B---------------15—-15p12--------------------------------|
|------—----------------------14-14B-14p12-14---14--14-14FB---|
|---------------------------------------------14--------------|
|------------------—------------------------------------------|
|--------------—----------------------------------------------|

|------0---3-0h3p0---------3--5--7---------------10--8--7-----|
|------------------3/5-5~~--------------------10--------------|
|--2/4---4-—--------------------------------9-----------------|
|----------------------------------------10-------------------|
|------------------—-----------------/12----------------------|
|--------------—----------------------------------------------|

|-------------------------------------------------------------|
|--8--5—-5~~--R-^-12-/-15-/-17--20--19-17-/17--17~~-17-15-----|
|------—------A-|---------------------------------------------|
|-------------K-|---------------------------------------------|
|-------------E-|----—----------------------------------------|
|--------------—----------------------------------------------|

|---------------------------------------------15/-------------|
|-------------------------------------------------------------|
|--16-14-14B14p12--—14----12---------------14B-----14/16------|
|-----------------14---14---14p12----12-14--------------------|
|------------------—--------------14--------------------------|
|--------------—----------------------------------------------|


|-------------17FB-----17FB~~--15-17-14-15-12-14-10-12-9-10---|
|--15h17-17~~-------------------------------------------------|
|------—------------------------------------------------------|
|-------------------------------------------------------------|
|------------------—------------------------------------------|
|--------------—----------------------------------------------|

|--7-9-5-7-3-5-3-0----0-------0-----0------0--/12-12-12-/12---|
|------------------/5---5-/-7---7/8---8/10----/12-12-12-/12---|
|------—------------------------------------------------------|
|-------------------------------------------------------------|
|------------------—------------------------------------------|
|--------------—----------------------------------------------|

|--12-12-/12-12-12-----12----12-----12------------------------|
|--12-12-/12-12-12—-15B---15B---15B---15B~~--15-12-11---------|
|------—----------------------------------------------14------|
|-------------------------------------------------------------|
|------------------—------------------------------------------|
|--------------—----------------------------------------------|

|-----------------------------------------7--5----------------|
|-----------------------------------------------8--/5--/5-----|
|--12h14p12---12-—12-14FB/--------------5---------------------|
|-----------14--14--------------------5-----------------------|
|------------------—--------0--3—-5/7-------------------------|
|--------------—----------------------------------------------|

|---------------------0-3-/-7-5-5/3-0-3-------0------0--------|
|--0----5-/-3-------3-------------------0-/-5---5-/5--/5-/12--|
|----/6—------4-2-4-------------------------------------------|
|-------------------------------------------------------------|
|------------------—------------------------------------------|
|--------------—----------------------------------------------|

|--0-12-0-0-10-0-0-9-0-0-7-0h3p0h5-0h3p0----------------------|
|----------------------------------------0-(3)-/5-5-----------|
|------—------------------------------------------------------|
|-------------------------------------------------------------|
|--------------------------------—----------------------------|
|--------------—--------------------------------------0-------|

|-----------------------0-----0-----0-----0-----0-----0-------|
|-------------------------------------------------------------|
|------—-------2/4--2/4---2/4---2/4---2/4---2/4---2/4---2/4---|
|-------------------------------------------------------------|
|------------------—------------------------------------------|
|--12---/---O------—------------------------------------------|
  |    PM    |
|------0------------------------------------------------------|
|---------0—-2b—-2b--2b--------------------2B~~---------------|
|--2/4----0—-2b—-2b—-2b-0------------------2B~~-2-0-2-0-------|
|---------0--2b—-2b—------2-0-2--2------0---------------2-0---|
|------------------—----------------0-2-----------------------|
|--------------—----------------------------------------------|

|--------------------------------------17~~---X*-17-14-15-----|
|----------3-5-0-X------------------17------------------------|
|----0-2/4-—---0-X---------------17---------------------------|
|--2-----------0-X---------14/19------------------------------|
|-------------------12—-15------------------------------------|
|--------------—----------------------------------------------|
*string noise

|--14h15p14-------------------------------------17----17------|
|-----------17-17-17B17p15-17----------15-17-17B—--17B---17BR-|
|------—---------------------16~~/-/16------------------------|
|-------------------------------------------------------------|
|------------------—------------------------------------------|
|--------------—----------------------------------------------|

|--------------12---------------------------------------------|
|--17~~/-----------15~~---------------------------------------|
|------—---/13-----------16-16p14/12-14-12---12---------------|
|------------------------------------------14------12-14-12---|
|------------------—----------------------------14------------|
|--------------—----------------------------------------------|

|----------0-LET----------------------------------------------|
|----------0----RING------------------------------------------|
|--14-12/--0--—-----------------------------------------------|
|--14-12/-----------------------------------------------------|
|------------------—------------------------------------------|
|--------------—----------------------------------------------|


End :


|-----12-15-14~~-12-15-12-14-12-------------------------------|
|--12---------------------------13-15-13/12~~WHAMMY BAR--/-X--|
|------—---------------------------------------------------X--|
|----------------------------------------------------------X--|
|------------------—------------------------------------------|
|--------------—----------------------------------------------|

|-----12-15-14~~-12-15-12-14-12-------------------------------|
|--12---------------------------12-11-10~~WHAMMY BAR----------|
|------—------------------------------------------------------|
|-------------------------------------------------------------|
|------------------—------------------------------------------|
|--------------—----------------------------------------------|

|---------12-14~~WHAMMY BAR----------14~~WHAMMY BAR-----------|
|------12-------------------------12--------------------------|
|--/14----—--------------------12-----------------------------|
|--------------------------/14--------------------------------|
|------------------—------------------------------------------|
|--------------—----------------------------------------------|

|-------------------------------------------------------------|
|--------15-12/13~~-12-15-13-13-12----------------------------|
|-----12-—-------------------------/12--11-9--9-9-9-9-9-9-9-/-|
|--14-----------------------------------------9-9-9-9-9-9-9-/-|
|------------------—--------------------------7-7-7-7-7-7-7-/-|
|--------------—------------------------------0-0-0-0-0-0-0---|








Guide to Tablature

b:1/4 bend
B:1/2 bend
FB:full bend
BR:bend released
h:hammer on
p:pull off
/:slide  
~:vibrato
PM:Palm Muted
.:dotted note
X:note played with heavy damping 

---------------------------------------------
“The Godfather” by Popa Chubby, as heard on 
http://www.myspace.com/popachubbyband   
Transcription: Frédéric Winne for Popa Chubby's Tabs Site http://www.brusselscityblues.fr.tc 
email: choko_tof@yahoo.fr 

Добавлено: 16.04.2012
Другие материалы по этой песне:
  • Аккорды и текст

Страница создана 16.04.2012
http://primanota.ru/popa-chubby/godfather-chords.htm
Привет, Гость.
Предлагаем пройти революционный курс по гитаре.
Подарок от PrimaNota.Ru, забирай!