PrimaNota.ru - самый крупный в мире бесплатный архив песенных текстов, аккордов, табулатур и нот


Pop Will Eat Itself - Cape Connection - аккорды и текст, таба, бас-таба, видео

Регистрация Запомнить меня
Войти через:  Facebook Google Twitter Vk Yandex Mail.ru

Pop Will Eat Itself - Cape Connection - аккорды и текст, таба, бас-таба, видео

Печатать
Просмотров: 138
Авторы текста: Graham Crabb
Cape Connection
Pop Will Eat Itself



From: gregf@wwa.com
Date: Tue, 6 Feb 96 19:09 CST
Subject: TAB:Cape Connection by Pop Will Eat Itself

Cape Connection by Pop Will Eat Itself
**************************************
from the album Dos Dedos Mis Amigos

tabbed by Chris Frase

This song has to be the best one on this incredible album.
I love the loud, crunchy guitar, and the song is so easy to play,
so I decided to tab it.
This is my first post, so it might have some mistakes.
Send comments, corrections, questions, and money to Chris Frase at:
gfrase@wwa.com

standard tuning

slide: / 
bend: b 
release: r
hammer-on: h 
pull-off: p
palm mute: X
vibrato: ~~~

Verse
E|------------------------------------------------|
B|------------------------------------------------|
G|------------------------------------------------|
D|--9--9--9--9--8----8----6--6--6--6--/7----7----|
A|--9--9--9--9--8----8----6--6--6--6--/7----7----|
E|--7--7--7--7--6----6----4--4--4--4--/5----5----|

Prechorus
E|---------------------------------|
B|---------------------------------|
G|o-------------------------------o|
D|o--13--13--13--13---12----12----o|
A|---13--13--13--13---12----12-----|
E|---11--11--11--11---10----10-----|

E|---------------------------------|---------------|               
B|---------------------------------|---------------|
G|o--11--11--11--11---10----10----o|---11-11-11----|                  
D|o--11--11--11--11---10----10----o|---11-11-11----|
A|----9---9---9---9----8-----8-----|----9--9--9----|                            
E|---------------------------------|---------------|

Chorus       (play 3x)
E|------------------------|-------------------|
B|------------------------|-------------------|
G|o--------------76-----o|-----3------4------|
D|o--------------76-----o|-----3------4------|
A|---3/53/5-----54------|-----1------2------|
E|---1/31/3--------------|-------------------|

That's all there is to it  And, since I'm just so generous, I'm including
the lyrics, since most of them are missing in the CD booklet.
(these are from mirrors.aol.com)

INTRO amp; CHORUS:
If you want the big one, .....

VERSE:
Deep south, way down and out, where .....

(CHORUS)

VERSE: (no guitar)
Flowers are for romance, ......

(CHORUS)

VERSE:
London Town is traffic hell, it's ....

(CHORUS)

 


Добавлено: 31.08.2013
Другие материалы по этой песне:
  • Аккорды и текст

Страница создана 04.06.2012
http://primanota.ru/pop-will-eat-itself/cape-connection-chords.htm
Привет, Гость.
Предлагаем пройти революционный курс по гитаре.
Подарок от PrimaNota.Ru, забирай!