PrimaNota.ru - самый крупный в мире бесплатный архив песенных текстов, аккордов, табулатур и нот


Poor Old Lu - The Weeds That Grow Around My Feet - текст песни, таба, видео

Регистрация Запомнить меня
Войти через:  Facebook Google Twitter Vk Yandex Mail.ru

Poor Old Lu - The Weeds That Grow Around My Feet - текст песни, таба, видео

Печатать
Просмотров: 101
		   Weeds That Grow Around My Feet
by Pool Old Lu
Copyright 1996 Poor Old tunes & Broken Songs (BMI)
Originally tabbed by Eclipsoes@aol.com
Updated by DEAN
E-mail:dometexp@aol.com


Same rules still apply
Capo 1st fret. Chords/Tabs relative to capo


Opening--Gm F Em7 Gm D


|-----3---------3---------8-3-----------------------2-----------
|---3---3-----3---3-----3-----3-------3-----------3-------------
|---------3---------2---------------3---3-------2------2h3p2-0--
|-5---------3---------2-----------5-------5---0-----------------
|-------------------------------5-----------0-------------------
|---------------------------------------------------------------


Verse 1
Gm
Choices cloud my head again
F
wrapped up in myself instead
    Em7
and if I fall this time
               Gm
will it be the last time
         D
for this crime


Verse 2
Gm
Anger has more of my soul
       F
than I ever wished it would hold
    Em7
and as I let it go
                 Gm
and watch how it grows
         D
it won't fold


Bridge: No chord (I think)  *= Pick real fast


|---------------------------------------------------------------
|--------------------------------------*--*---------------------
|-------------------------------------7--5---*--*---------------
|-5-5-7-7-5-5-7-7-5-5-7-7-5-5-7-7-5-5-------8--7----------------
|---------------------------------------------------------------
|---------------------------------------------------------------
Oooohhh! C I love this world?


|---------------------------------------------2-----------------
|-------------------------------------------3-------------------
|-----------------------------------------2---------------------
|-5-5-7-7-5-5-7-7-5-5-7-7-5-5-7-7-5-5---0-----------------------
|-------------------------------------0-------------------------
|---------------------------------------------------------------
oooohhh! Can I breathe beyond here?


Verse 3
Gm
Flowers have grown round my eyes and ears
    F
the soil it soaks all my tears
        Em7
How I'm tired of standing here
                     Gm                  D
and I'm sick of that heat that's so near


Verse 4
Gm
And if we're all right
       F
and if we can't be wong
        Em7
then we needn't fear


We're almost there
           Gm                   D
Like I'm depressed and I hold a gun


Bridge


Chorus
Gm
It's all the same
     Eb
just falling rain
        Cm             f
all the more reason to stay
Gm
What is the scene?
     Eb
It's brown and green
    Cm                        F
the weeds that grow around my feet


Solo
|----------------------------------------------------------------------
|----------------------------------------------------------------------
|---------7h8p7----------5-----------5---------------------------------
|-5---5h7----------5h7-8---7----5h7-8--5----5---5h7/8------------------
|-----------------------------------------------------5----------------
|----------------------------------------------------------------------


|-10--10-10---10---10---10-8-6-6/5--5h6p5---5h6-8p6-6--------------------
|-----------8----8----8-------------------------------4---10h11-13p11-10-
|------------------------------------------------------------------------
|------------------------------------------------------------------------
|------------------------------------------------------------------------
|------------------------------------------------------------------------


|----13----10-------------------------
|-------------------------------------  -- You need to pick often to get 
|-12----12----------------------------     the feel on the last 4 notes.
|-------------------------------------
|-------------------------------------
|-------------------------------------


Bridge


Chorus


Verse 4 (last line is not sunged)


Fading: Gm F Em7 Gm D w/corresponding riff


Chords (relative to capo)


Gm: 355333
F:  133211
Em7:131131
D:  x00232
Eb: x65343
Cm: 335543


Any questins or comments please E-mail me.


God bless you,


DEAN
dometexp@aol.com     
Добавлено: 26.07.2013
Другие материалы по этой песне:
  • Аккорды и текст

Страница создана 28.06.2012
http://primanota.ru/poor-old-lu/the-weeds-that-grow-around-my-feet-chords.htm
Привет, Гость.
Предлагаем пройти революционный курс по гитаре.
Подарок от PrimaNota.Ru, забирай!