PrimaNota.ru - самый крупный в мире бесплатный архив песенных текстов, аккордов, табулатур и нот


Poor Old Lu - Rail - текст песни, таба, видео

Регистрация Запомнить меня
Войти через:  Facebook Google Twitter Vk Yandex Mail.ru

Poor Old Lu - Rail - текст песни, таба, видео

Печатать
Просмотров: 124
		   Rail
by Poor Old Lu
"A Picture of the 8th Wonder"
Copyright 1996 Poor Old Tunes and Broken Songs (BMI)
All songs by Poor Old Lu
Produced by Poor Old Lu

Barre all Chords...use A Barre in the beginning, at the postlude E Barre

Intro:  G#min   B  A#min  E

Tab 1 (see below) comes in, then tab 2 on a second guitar...the tabs are repeated and repeated and repeated

Towards the end of the Intro:  C#min  B  G#min  F#   E   D#min  with tab 3 


During the verses, Tab 1 is played through...halfway in Tab 2 enters

Verse 1:

G#min           B         A#min                           E         
Jesus tie these hands,  I used to think that everything I touched 
       G#min                   B                         A#min        E
Turned gold  But it don't      It turns cold
    G#min                  B               A#min            E   
And reason guides this man Like spring and fall  And wind to sand  
G#min             B      A             E
I sway, I sway  I cannot stand

Chorus:

C#min          F#                        B                      E                 
What do I do?  When it seems I relate to Judas more than you
C#min             F#                           G#min        B     A#min   E
And I can't ever  I can't ever  see the end...


G#min    B      A#min     E 

Verse 2:

G#min            B                      A#min           E
Jesus Help me to see  It's not about consequence It's peace  
      G#min               B               A#min         E
And I won't seek  I won't seek  On my own knees

    G#min             B            A#min        E    
And grace is over me  It's true, I feel, I know it's real
    G#min        B         A#min              E
But will I live  What I believe


Chorus

Guitar Postlude:

G#min  B  A#min E  repeated a whole bunch with tabs (and one high one that I haven't tabbed) then:

C#min  B  G#min  F#  E  D#min and Tab 3

G#min  E  B until the end....with Tab 4 and Solo


Tab 1:
---------------------------------------------------------------------------
-----4---4-----------4---4----------4---4-----------4------4--4----4--4----
---1---3-----------1---3----------1---3-----------1---3---------3----------
---------------------------------------------------------------------------
---------------------------------------------------------------------------
---------------------------------------------------------------------------


Tab 2:
-----2^4--4-4--6--4------2----2-2-2-4-2------------------------------------
----------------------------------------2-2-2-2-0-2-4--2-0-2---------------
---------------------------------------------------------------3-1---------
---------------------------------------------------------------------------
---------------------------------------------------------------------------
---------------------------------------------------------------------------

Tab 3:

-------------------------------------------------------
---------2-2----2-2----2----0-0----0-0---0-------------
------1-------1------1----1-------1----1-----1-1-1-1-1-
-------------------------------------------------------
-------------------------------------------------------
-------------------------------------------------------

-------------------------------------------------------
-------------------------------------------------------
-------------------------------------------------------
---1-1---1-1---1---1-1---1-1---1--1--1--1--1---1-------
-4---- 4-----4---2-----2-----2---1--1--1--1----1-------
-------------------------------------------------------

tab 4:
-------------------------------------------------------
-------------------------------------------------------
----1---8--6--4---8--6--3--4--4--3---1--1--8--6--4---4-
-------------------------------------------------------
-------------------------------------------------------
-------------------------------------------------------

Solo
11----11--11---11---------------11---11----------------11----11-------------------
---9-9---9-- 9----------------9----9-----9--12------9-----9------9--12^11^12^11-9-
----------------------------------------------------------------------------------
----------------------------------------------------------------------------------
----------------------------------------------------------------------------------
----------------------------------------------------------------------------------


--11---11------------------------------------------
9----9-----9--12-----5-----------Go Into Tab 4-----
---------------------------------------------------
---------------------------------------------------
---------------------------------------------------
---------------------------------------------------


     
Добавлено: 10.07.2013
Другие материалы по этой песне:
  • Аккорды и текст

Страница создана 11.05.2012
http://primanota.ru/poor-old-lu/rail-chords.htm
Привет, Гость.
Предлагаем пройти революционный курс по гитаре.
Подарок от PrimaNota.Ru, забирай!