PrimaNota.ru - самый крупный в мире бесплатный архив песенных текстов, аккордов, табулатур и нот


Poor Old Lu - My World Falls Down - текст песни, таба, видео

Регистрация Запомнить меня
Войти через:  Facebook Google Twitter Vk Yandex Mail.ru

Poor Old Lu - My World Falls Down - текст песни, таба, видео

Печатать
Просмотров: 68
		   From BHSETT1@UKCC.UKY.EDU Wed Jan 10 21:05:33 1996


poor old lu. - "my world falls down"

**intro/outro**
 Em      C       D
---------------------------------g    g--0-----------0--------0-------
---------------------------------u    u--5-----------5--------5-------
-0-0-0-x-5-5-5-x-7-7-7-x-x-x-x-x-i    i--7-(bend up)-7-b.u.---7-b.u.--
-2-2-2-x-5-5-5-x-7-7-7-x-x-x-x-x-t    t-------------------------------
-2-2-2-x-3-3-3-x-5-5-5-x-x-x-x-x-#    #-------------------------------
-0-0-0-x-3-3-3-x-5-5-5-x-x-x-x-x-1    2-------------------------------

**verse**
 G             D       F#m           G             D       F#m
-2---2-x-1/2-2-2-0-----------------------2-x-1/2-2-2-0-------------------
-2---2-x-2/3-3-3-3-----------------------2-x-2/3-3-3-3-------------------
-0---0-x-0-0-0-2-2-------------------0---0-x-0-0-0-2-2-------------------
-0---0-x---------------4-4-4-4-4-4---0---0-x---------------4-4-x-x-4-4-x-
-----------------------4-4-4-4-4-4-x-----------------------4-4-x-x-4-4-x-
-----------------------2-2-2-2-2-2-0-----------------------2-2-x-x-2-2-x-
o how my world falls down              & how i sink at the sound

 G             D       F#m           Em              C   D
-2---2-x-1/2-2-2-0-------------------0---0-----------0-0-2-2---2---2-3-2-0-
-2---2-x-2/3-3-3-3-------------------0-----3-0-------1-1-3-3---3---3-3-3-0-
-0---0-x-0-0-0-2-2-------------------0---------0-----0-0-2-2---2---2-2-2-2-
-0---0-x---------------4-4-4-4-4-4-x-2-----------0-x-2-2-0-0---0---x-x-x-x-
-----------------------4-4-4-4-4-4-x-2---------------3-3-------------------
-----------------------2-2-2-2-2-2-x-0-------------------------------------
but how i won't shut up                          (*verse2*) i stay... (3x)
                                                            i wait...
                                                            i faint...
**bridge**
 ?     ?         Em
-----------------------------------------                 -------------------
-----------------------------------------                 -------------------
-----0-----0-------x-9---9-9---x-9---9-9-                 -7---7---7-----7-7-
---0-----0---------x-9---9-9---x-9---9-9-  3rd time ring: -7---7---7-----7-7-
-3-----2-----------x-7---7-7---x-7---7-7-                 -5---5---5-----5-5-
-------------3~~~0-----------0---0---0-0-                 -x---x---x-----x-x-
               i got my sin and i got my lie... (3x)
               am i on my face? gotta know, who am i?...
               i'm stupid man & my eyes are dry...
**chorus**
 Em      Gm    Am                Em      Gm    Am
-----------------------------------------------------------------
-----------------------------------------------------------------
-----------------------------------------------------------------
-2-2-2-2-5-5-5-7---7-7-7-7-7-7--›2-2-2-2-5-5-5-7---7-7-7-7-7-7--›
-2-2-2-2-5-5-5-7---7-7-7-7-7-7--›2-2-2-2-5-5-5-7---7-7-7-7-7-7--›
-0-0-0-0-3-3-3-5---5-5-5-5-5~5~~›0-0-0-0-3-3-3-5---5-5-5-5-5~5~~›
 insane. what say me?            my God, get me free... (2x)

other lyrics:
(bridge) will i lift my hands and die inside?
         i suffocate when i hold my life
         will we throw it out? yeh, i need Christ

the order...
intro-verse1-verse2-bridge1-verse1-chorus-verse2-bridge2-chorus-verse1-outro

     
Добавлено: 11.09.2013
Другие материалы по этой песне:
  • Аккорды и текст

Страница создана 08.04.2012
http://primanota.ru/poor-old-lu/my-world-falls-down-chords.htm
Привет, Гость.
Предлагаем пройти революционный курс по гитаре.
Подарок от PrimaNota.Ru, забирай!