PrimaNota.ru - самый крупный в мире бесплатный архив песенных текстов, аккордов, табулатур и нот


Poor Old Lu - More - таба, видео

Регистрация Запомнить меня
Войти через:  Facebook Google Twitter Vk Yandex Mail.ru

Poor Old Lu - More - таба, видео

Печатать
Просмотров: 98
Уроки эстрадного вокала в Санкт-Петербурге
		   "more" by poor old lu
from the album "mindsize" 
alarma records, 1993
tabbed by burr settles (the armadillo) bhsett1@ukcc.uky.edu

intro...
-------------------------
-------------------------
-------------------------
-7---6---3-3-3---3-3-3-3-
-7---6---3-3-3---3-3-3-3-  ...it's a short intro :)
-5---4---0-1-1---0-1-1-1-

verses...
-----------------------------------------------------------------
-----------------------------------------------------------------
-----------------------------------------------------------------
-------4-----2---------4-----2---------4-----2-------0-------0---
-----4---3-3---3-----4---3-3---3-----4---3-3---3-2-2---2-1-1---1-
-2-2-------------2-2-------------2-2-----------------------------
oblivious to some things more in store
when i wept i knew not what or when or why, what for

-------------------2---------------------------------------------
-------------------2---------------------------------------------
-------------------2---------------------------------------------
-4-------------------------------------4-----2---------4-----2---
-4-----------------------------------4---3-3---3-----4---3-3---3-
-2-------------------------------2-2-------------2-2-------------
is this earth so great though it will not last

-------------------2---------------------------------------------
-------------------2---------------------------------------------
-------------------2---------------------------------------------
-4-------------------------------------4-----2-------0-------0---
-4-----------------------------------4---3-3---3-2-2---2-1-1---1-
-2-------------------------------2-2-----------------------------
through crashing walls what stands is one good thing one way one chance

chorus...
-------------------------------------------------
-------------------------------------------------
-6-----6-x-x-x-x-2-2-x-x-------------------------
-6-----6-x-x-x-x-2-2-x-x-2-----2-x-x-x-x-4-4-x-x-
-4-----4-x-x-x-x-0-0-x-x-2-----2-x-x-x-x-4-4-x-x-
-------------------------0-----0-x-x-x-x-2-2-x-x-
seeing                revealing
-------------------------------------------------
-------------------------------------------------
-6-----6-x-x-x-x-2-2-x-x-------------------------
-6-----6-x-x-x-x-2-2-x-x-8-----8-x-x-x-x-7-7-x-x-
-4-----4-x-x-x-x-0-0-x-x-8-----8-x-x-x-x-7-7-x-x-
-------------------------6-----6-x-x-x-x-5-5-x-x-
more is                  here today

bridge...
-------------------------------      -------2-2-2-2-      -----------------
-------------------------------      -------2-2-2-2-      -----------------
------------------------------- (2x) -------2-2-2-2-      -----------------
-4---4-4-4---4-4-4-4-----------      -4---4--------- (3x) -7-7-7-7-6-6-6-6-
-4---4-4-4---4-4-4-4-----------      -4---4---------      -7-7-7-7-6-6-6-6-
-2---2-0-2---0-2-0-2----/5~~---      -2---2---------      -5-5-5-5-4-4-4-4-
     
Добавлено: 23.06.2013
Другие материалы по этой песне:
  • Аккорды и текст

Страница создана 23.06.2013
http://primanota.ru/poor-old-lu/more-chords.htm
Привет, Гость.
Предлагаем пройти революционный курс по гитаре.
Подарок от PrimaNota.Ru, забирай!