PrimaNota.ru - самый крупный в мире бесплатный архив песенных текстов, аккордов, табулатур и нот


Poor Old Lu - Joy I Had Was Joy I Sold - текст песни, таба, видео

Регистрация Запомнить меня
Войти через:  Facebook Google Twitter Vk Yandex Mail.ru

Poor Old Lu - Joy I Had Was Joy I Sold - текст песни, таба, видео

Печатать
Просмотров: 126
Уроки эстрадного вокала в Санкт-Петербурге
		   Song: "Joy I had was Joy I sold"
Artist: Poor Old Lu
Album: Pictures of the Eighth Wonder (c) 1996 Poor Old Tunes and Broken Songs (BMI)
Tabbed: Ken Bonner (bonner@iserv.net)

*Intro/Verses: Hard and Heavy w/Gibson Guitar
e-x-x--x-x--x-x-x--2-2-2-----------
B-x-x--x-x--x-x-x--2-2-2-----------
G-x-x--x-x--x-x-x--3-3-3-----------
D-4-4--4-3--3-4-4--4-4-4-----------
A-4-4--4-3--3-4-4--4-4-4-----------
E-2-2--2-1--1-2-2--2-2-2-----------

*Chorus: Strum Aggressively
e-x--x--x--------------
B-x--x--x--------------
G-x--x--x--------------
D-6--9--4--------------
A-6--9--4--------------
E-4--7--2--------------

*Solo:...or something like it
e--77-6-2-6-77-6-2-212-2----
B------------------------2-
G--------------------------
D--------------------------
A--------------------------
E--------------------------


Thats it. I'm too lazy to write lyrics out
-Ken Bonner


     
Добавлено: 01.07.2013
Другие материалы по этой песне:
  • Аккорды и текст

Страница создана 08.03.2012
http://primanota.ru/poor-old-lu/joy-i-had-was-joy-i-sold-chords.htm
Привет, Гость.
Предлагаем пройти революционный курс по гитаре.
Подарок от PrimaNota.Ru, забирай!