PrimaNota.ru - самый крупный в мире бесплатный архив песенных текстов, аккордов, табулатур и нот


Poor Old Lu - Hello Sunny Weather - текст песни, таба, видео

Регистрация Запомнить меня
Войти через:  Facebook Google Twitter Vk Yandex Mail.ru

Poor Old Lu - Hello Sunny Weather - текст песни, таба, видео

Печатать
Просмотров: 102
		   Hello Sunny Weather
Poor Old Lu
1996  Poor Old Tunes and Broken Songs (BMI)
by Eclipsoes@aol.com


Capo 1st fret (unless my guitar's really really out of tune ;)
You can keep all chords (except the Bb and the G#) open or barre them

Opening:  C  Am G  Bb  with Main Riff/Tab (see below)  diluted through here and  the whole song


    C                       Am                 
She shook her head and turned away
         G                        Bb                               
said she will not hear my voice today
         C                   Am	                                                       
"You are still asleep and still the same
               G          Bb                                        
Same as the day you said you'd change"


            C                     Am                                               
And with my thoughts she left me stand
     G                                      Bb                                    
With words that scarred my face and hands
    C                      Am                            
Maybe when I let my rocket land
         G                      Bb                                
She will see the boy inside the man


Chorus:    
 C                                                    
Break this heart as Cold as Stone
    Am                                              
You got to, got to now
       G                                              
then Hello Sunny Weather
 Bb                                             
Hello Sunny Weather
   C                                          
And breathe so deep The Love of Christ
      Am                                    
I got to, I got to now
     G                                       
Then Hello Sunny Weather
      Bb                                       
Hello, Hello


C              Am             G                                Bb                                      
Loveliness, it has a name, like John and Jill, and Bill and Charlemagne
       C                       Am                                                          
But I guess my years of acting sane
              G                            Bb  
Were spent looking for the savior's face


Chorus


Bridge:    C   G#  C  G#   C  G#  G     C  G#  C  G#  C  G#  G
  
  C                       Am          
I know I've said this all before
        G                                Bb    
But I'm sure I mean it now all the more

Chorus  (Main Riff all through here)

Solo Tab (see Below)  C G#  C G#  C  G#  G x2

Then the Main Riff to close


(Tabs relative to Capo)

Main Riff/Tab
---------------------------------------------------------
8-8-8-6-5-----3-1-3-5-3-----3-1-3-5-3----------3-5-6-----
---------------------------------------------------------
---------------------------------------------------------
---------------------------------------------------------
---------------------------------------------------------

Solo C/G# Tab
8------------8-------10----8--------------
--8-11-8-------8-11----------8-11-8---3---
------------------------------------------
------------------------------------------
------------------------------------------
------------------------------------------

8-------------8-------10----8--------------------
-- 8-11-8-------8-11--------- -8-11-8---3------6-
-------------------------------------------------
-------------------------------------------------
-------------------------------------------------
-------------------------------------------------

Corrections?  Mistakes?


     
Добавлено: 26.09.2013
Другие материалы по этой песне:
  • Аккорды и текст

Страница создана 12.04.2012
http://primanota.ru/poor-old-lu/hello-sunny-weather-chords.htm
Привет, Гость.
Предлагаем пройти революционный курс по гитаре.
Подарок от PrimaNota.Ru, забирай!