PrimaNota.ru - самый крупный в мире бесплатный архив песенных текстов, аккордов, табулатур и нот


Poor Old Lu - Enough - текст песни, таба, видео

Регистрация Запомнить меня
Войти через:  Facebook Google Twitter Vk Yandex Mail.ru

Poor Old Lu - Enough - текст песни, таба, видео

Печатать
Просмотров: 94
		   Enough
by Poor Old lu
"A Picture of the 8th Wonder"
Copyright 1996 Poor Old Tunes & Broken Songs (BMI)
All songs by Poor Old Lu
Produced by Poor Old Lu
Tabbed by Dean
E-mail: dometexp@aol.com


Intro: (Keyboard) G#m
Add guitars: G#m  E


Verse 1:
G#m                           E    G#m
  And is the worst all over?
                              E    G#m
Did my dreams go south or...
                              E    G#m
I've a bruise on my head
        D#      E
does it show?


Verse 2:
G#m                           E    G#m
  My words so strange to me
                              E    G#m
thought that I was strong
                              E    G#m
Now I'm feeling empty
       D#    E
and so low


Chorus Riff (no lyrics)


Verse 3:
G#m                           E    G#m
  Another cup of nothing
                              E    G#m
cause I think I'm full
                              E    G#m
and my hands are trembling 
      D#     E
for a soul


Chorus:
   B     B    B                         G#m
E|-7-----7----7-------------------------4--------
B|-7-----7----7-------------------------4--------
G|-8-----8----8-------------------------4--------
D|-9-----9----9------8h-9p-8------------6--------
A|-9-----9----9---------------6---------6--------
E|-7-----7----7-------------------------4--------
   Wait,      don't  count me down  or  lost


   G           A
(I know what's real)
       B     B    B                               G#m
E|-----7-----7----7-------------------------------4-------
B|-----7-----7----7-------------------------------4-------
G|-----8-----8----8-------------------------------4-------
D|-----9-----9----9------8h-9p8-------------------6-------
A|-----9-----9----9---------------6---------------6-------
E|-----7-----7----7-------------------------------4-------
  I've held       I've   held his hand I know the cost


   G     A


Solo: (*= Pick really fast)


E|--------------7-6-----------------------------------------
B|--*---*-------------------------*---*---------------------
G|-8---8-------------------------8---6---4-6-4--6h8p6-------
D|--------8--8-------7---6-----------------------------6----
A|----------------------------------------------------------
E|----------------------------------------------------------
    *   *
E|-6---7---6-7-6---4-6-4--------11-9-7-6-7-9-7-6-4-6-7-6-7-9-7-9----
B|------------------------4\----------------------------------------
G|------------------------------------------------------------------
D|------------------------------------------------------------------
A|------------------------------------------------------------------
E|------------------------------------------------------------------
                                 G#m
E|-------------------------------4-----
B|-12----------11h12p11----------4-----
G|-------------------------------4-----
D|-----------------------8-------6-----
A|-------------------------------6-----
E|-------------------------------4-----
   Wait, don't count  me down or lost


   G           A
(I know what's real)
       B     B    B                             G#m
E|-----7-----7----7-----------------------------4-----
B|-----7-----7----7-----------------------------4-----
G|-----8-----8----8-----------------------------4-----
D|-----9-----9----9----8h-9p8-------------------6-----
A|-----9-----9----9-------------6---------------6-----
E|-----7-----7----7-----------------------------4-----
  I've held       I've held his hand I know the cost


  G    A


Interlude: G#m  F#  Bb


Bridge: 
G#m                      E   G#m
  This is written on me
                      E
Christ is everything


Chorus x2


End in G#m


Okay, here's the thing. There is a G#m in the verse the thing is that every 
time a played a G#m, it sounds dull. I prefer playing a G#
Sooo!!!! You play it however you want it and tell me please!! Which sounds
better on the verse.


God bless you,


DEAN
dometexp@aol.com
     
Добавлено: 29.08.2013
Другие материалы по этой песне:
  • Аккорды и текст

Страница создана 23.04.2012
http://primanota.ru/poor-old-lu/enough-chords.htm
Привет, Гость.
Предлагаем пройти революционный курс по гитаре.
Подарок от PrimaNota.Ru, забирай!