PrimaNota.ru - самый крупный в мире бесплатный архив песенных текстов, аккордов, табулатур и нот


Poor Old Lu - All Pretty For The T.V. - текст песни, таба, видео

Регистрация Запомнить меня
Войти через:  Facebook Google Twitter Vk Yandex Mail.ru

Poor Old Lu - All Pretty For The T.V. - текст песни, таба, видео

Печатать
Просмотров: 74
		   "all pretty for the t.v." by poor old lu,
from the album "mindsize"
alarma records, 1993

tabbed by burr "armadillo" settles (bhsett1@ukcc.uky.edu)

(#) means it's a harmonic

intro...
----------------(7)-(7)-(7)-(7-7-7)---------------(7)-(7)-(7)---(7-7)
----------------(7)-(7)-(7)-(7-7-7)---------------(7)-(7)-(7)---(7-7)
-9-9-9-9-9-9----(7)-(7)-(7)-(7-7-7)9-9-9-9-9-9----(7)-(7)-(7)---(7-7)
-9-9-9-9-9-9----(7)-(7)-(7)-(7-7-7)9-9-9-9-9-9----(7)-(7)-(7)---(7-7)
-7-7-7-7-7-7-----------------------7-7-7-7-7-7-----------------------
---------------------------------------------------------------------

----------------(7)-(7)-(7)-(7-7-7)----------------------------------
----------------(7)-(7)-(7)-(7-7-7)----------------------------------
-9-9-9-9-9-9----(7)-(7)-(7)-(7-7-7)----------------------------------
-9-9-9-9-9-9----(7)-(7)-(7)-(7-7-7)9-9-9-9-9-9----------------------- (2x)
-7-7-7-7-7-7-----------------------7-7-7-7-7-7-----------------------
---------------------------------------------------7---5---0-3-2-0---

verses...
-----------------------------------
-----------------------------------
-9-9-9-9-9-9-----------------------
-9-9-9-9-9-9-----------------------  (a bunch of times)
-7-7-7-7-7-7-----------------------
-----------------3-5---3-3^5---5-5-

bridge...
-----------------------------------------------------------
-----------------------------------------------------------
-----------------------------------------------------------
---------5-------5-------------------4---------------7-7-7-
-----3-------3-------3-----------2---------------5---5-5-5-
-3---------3-------------3-3-2-----------2-2/5---5---5-5-5-

-------------------------------------------------------------------------
-------------------------------------------------------------------------
-------------------------------------------------------------------------
-2-2-2-2-2-2-------------------------2-2-2-2-2-2-------------------------
-2-2-2-2-2-2-------------------------2-2-2-2-2-2-------------------------
-0-0-0-0-0-0-----3---5---3-3^5---5-5-0-0-0-0-0-0-----3---5---3-3^5---5-5-
                                              (2x)
chorus...
-----------------------------------------------------------
-----------------------------------------------------------
---------2-----------------------------2-------------------
-2---0---2---------------------2---0---2-------------------
-2---2---0---------------------2---2---0-------------------
-0---3-------7---5---0-3-2-0---0---3-------7---5---0-3-2-0-

-----------------------------------------------------------
-----------------------------------------------------------
---------2-------------------------------------------------
-2---0---2---------------------4-4-4-4-4-4-4-5-------------
-2---2---0---------------------4-4-4-4-4-4-4-5-------------
-0---3-------7---5---0-3-2-0---2-2-2-2-2-2-2-3-------------  (2x)
     
Добавлено: 04.07.2013
Другие материалы по этой песне:
  • Аккорды и текст

Страница создана 03.04.2012
http://primanota.ru/poor-old-lu/all-pretty-for-the-tv-chords.htm
Привет, Гость.
Предлагаем пройти революционный курс по гитаре.
Подарок от PrimaNota.Ru, забирай!