PrimaNota.ru - самый крупный в мире бесплатный архив песенных текстов, аккордов, табулатур и нот


Poor Moon - Clouds Below - таба, видео

Регистрация Запомнить меня
Войти через:  Facebook Google Twitter Vk Yandex Mail.ru

Poor Moon - Clouds Below - таба, видео

Печатать
Просмотров: 105
Уроки эстрадного вокала в Санкт-Петербурге
-------------------------------------------------------------------------------
                             CLOUDS BELOW - Poor Moon
-------------------------------------------------------------------------------
Tabbed by: Smellygish
E-mail: dnelsen27@gmail.com

Tuning: Standard EADGBe capo 5

Chord shapes:

1: x5543x
2: x5450x
3: x3201x
4: x3220x
5: x5453x
6: x2200x

INTRO
      *1*              *2*             *3*              *4*
e|-------------------------------------------------------------------|
B|--------3---------------0---------------1---------------0-------0--|
G|----4---------------5---------------0---------------2-------2------|
D|------5---------------4---------------2---------------2-------2----|
A|--5---------------5---------------3---------------3-------3--------|
E|-------------------------------------------------------------------|
      *1*              *2*           *4*
e|-------------------------------------------------------------------|
B|--------3---------------0-------0-------0-------0-------0-------0--|
G|----4---------------5-------5-------2-------2-------2-------2------|
D|------5---------------4-------4-------2-------2-------2-------2----|
A|--5---------------5-------5-------0-------3-------2-------0--------|
E|-------------------------------------------------------------------|

VERSE 1
     *1*             *3*             *5*             *6*
e|-----------------------------------------------------------|
B|--------3---------------1---------------3------3--------0--|
G|----4---------------0---------------5------5--------0------|
D|------5---------------2---------------4------4--------2----|
A|--5---------------3---------------5------5--------2--------|
E|-----------------------------------------------------------|
     *1*             *3*             *5*            *3*
e|----------------------------------------------------------|
B|--------3---------------1---------------3------3-------1--|
G|----4---------------0---------------5------5-------0------|
D|------5---------------2---------------4------4-------2----|
A|--5---------------3---------------5------5-------3--------|
E|----------------------------------------------------------|
      *1*              *2*             *3*              *4*
e|-------------------------------------------------------------------|
B|--------3---------------0---------------1---------------0-------0--|
G|----4---------------5---------------0---------------2-------2------|
D|------5---------------4---------------2---------------2-------2----|
A|--5---------------5---------------3---------------3-------3--------|
E|-------------------------------------------------------------------|
      *1*              *2*           *4*
e|-------------------------------------------------------------------|
B|--------3---------------0-------0-------0-------0-------0-------0--|
G|----4---------------5-------5-------2-------2-------2-------2------|
D|------5---------------4-------4-------2-------2-------2-------2----|
A|--5---------------5-------5-------0-------3-------2-------0--------|
E|-------------------------------------------------------------------|

VERSE 2

     *1*             *3*             *5*            *6*
e|-----------------------------------------------------------|
B|--------3---------------1---------------3------3--------0--|
G|----4---------------0---------------5------5--------0------|
D|------5---------------2---------------4------4--------2----|
A|--5---------------3---------------5------5--------2--------|
E|-----------------------------------------------------------|
     *1*             *3*             *5*            *3*
e|----------------------------------------------------------------------------------|
B|--------3---------------1---------------3------3-------1-------1-------1-------1--|
G|----4---------------0---------------5------5-------0-------0-------0-------0------|
D|------5---------------2---------------4------4-------2-------2-------2-------2----|
A|--5---------------3---------------5------5-------3-------3-------3-------3--------|
E|----------------------------------------------------------------------------------|

FILL (whistling part!)

     *1*              *3*             *1*            *3*
e|-----------------------------------------------------------------| 
B|--------3---------------1---------------3---------------1--------|  
G|----4---------------0---------------4---------------0------------| 
D|------5-------5-------2-------2-------5-------5-------2-------2--| 
A|--5-------5-------3-------3-------5-------5-------3-------3------|
E|-----------------------------------------------------------------|
     *1*              *3*           *5*              *3*
e|-----------------------------------------------------------| 
B|--------3---------------1---------------3-------3-------1--|  
G|----4---------------0---------------5-------5-------0------| 
D|------5-------5-------2-------2-------4-------4-------2----| 
A|--5-------5-------3-------3-------5-------5-------3--------|
E|-----------------------------------------------------------|

VERSE 3

     *1*             *3*             *5*            *6*
e|-----------------------------------------------------------|
B|--------3---------------1---------------3------3--------0--|
G|----4---------------0---------------5------5--------0------|
D|------5---------------2---------------4------4--------2----|
A|--5---------------3---------------5------5--------2--------|
E|-----------------------------------------------------------|
     *1*             *3*             *5*            *3*
e|----------------------------------------------------------------------------------|
B|--------3---------------1---------------3------3-------1-------1-------1-------1--|
G|----4---------------0---------------5------5-------0-------0-------0-------0------|
D|------5---------------2---------------4------4-------2-------2-------2-------2----|
A|--5---------------3---------------5------5-------3-------3-------3-------3--------|
E|----------------------------------------------------------------------------------|

FILL 2
     *1*              *3*             *1*            *3*
e|-----------------------------------------------------------------| 
B|--------3---------------1---------------3---------------1--------|  
G|----4---------------0---------------4---------------0------------| 
D|------5-------5-------2-------2-------5-------5-------2-------2--| 
A|--5-------5-------3-------3-------5-------5-------3-------3------|
E|-----------------------------------------------------------------|
     *1*              *3*           *5*              *3*
e|-----------------------------------------------------------| 
B|--------3---------------1---------------3-------3-------1--|  
G|----4---------------0---------------5-------5-------0------| 
D|------5-------5-------2-------2-------4-------4-------2----| 
A|--5-------5-------3-------3-------5-------5-------3--------|
E|-----------------------------------------------------------|
      *1*              *2*             *3*              *4*
e|-------------------------------------------------------------------|
B|--------3---------------0---------------1---------------0-------0--|
G|----4---------------5---------------0---------------2-------2------|
D|------5---------------4---------------2---------------2-------2----|
A|--5---------------5---------------3---------------3-------3--------|
E|-------------------------------------------------------------------|
      *1*              *2*           *4*
e|-------------------------------------------------------------------|
B|--------3---------------0-------0-------0-------0-------0-------0--|
G|----4---------------5-------5-------2-------2-------2-------2------|
D|------5---------------4-------4-------2-------2-------2-------2----|
A|--5---------------5-------5-------0-------3-------2-------0--------|
E|-------------------------------------------------------------------|

VERSE 4
     *1*             *3*             *5*             *6*
e|-------------------------------------------------------------|
B|--------3---------------1---------------3------3-------0-----|
G|----4---------------0---------------5------5-------0---------|
D|------5---------------2---------------4------4-------2-------|
A|--5---------------3---------------5------5-------2-----------|
E|-------------------------------------------------------------|
     *1*             *3*             *5*            *3*
e|----------------------------------------------------------|
B|--------3---------------1---------------3------3-------1--|
G|----4---------------0---------------5------5-------0------|
D|------5---------------2---------------4------4-------2----|
A|--5---------------3---------------5------5-------3--------|
E|----------------------------------------------------------|

OUTRO
     *1*                             *5*            *3*
e|-----------------------------------------------------------|
B|--------3-------3-------3-------3-------3-------3-------1--|
G|----4-------4-------4-------4-------5-------5-------0------|  X 2
D|------5-------5-------5-------5-------4-------4-------2----| 
A|--5-------5-------5-------5-------5-------5-------3--------|
E|-----------------------------------------------------------|

     End by strumming the "1" chord.
Добавлено: 23.07.2013
Вам также может быть интересно:
Другие материалы по этой песне:
  • Аккорды и текст

Страница создана 10.06.2013
http://primanota.ru/poor-moon/clouds-below-chords.htm
Привет, Гость.
Предлагаем пройти революционный курс по гитаре.
Подарок от PrimaNota.Ru, забирай!