PrimaNota.ru - самый крупный в мире бесплатный архив песенных текстов, аккордов, табулатур и нот


Pooh - Laquila E Il Falco - таба, видео

Регистрация Запомнить меня
Войти через:  Facebook Google Twitter Vk Yandex Mail.ru

Pooh - Laquila E Il Falco - таба, видео

Печатать
Просмотров: 101
|----------------------------------|
|----------------------------------|
|---------2---5-4---2--------------|
|-2-4-5-2---4-----4---5-0-5-4-2----|
|----------------------------------|
|----------------------------------|
                                         (x2)
|----------------------------------|
|---------2---5-4---2--------------|
|-2-4-5-2---4-----4---5-0-5-4------|
|----------------------------------|
|----------------------------------|
|----------------------------------|

|--------------------------------------------2-------2-----------------|
|--------------------------------------------3-------3-----------------|
|--------------------------------------------2-------2-----------------|
|-2-2-------------------------2---------2-2-----2-2-----2-2---2---4----|
|-2-2-------------------------2---------2-2-----2-2-----2-2------------|
|-0-0-------------------------0---------0-0-----0-0-----0-0------------|

|-----------------------------------------------------------------|
|-----------------------------------------------------------------|
|---------2---5-4---2-----------------2---5-4---2-----------------|
|-2-4-5-2---4-----4---5-0-5-4-2-4-5-2---4-----4---5-0-5-4-2-------|
|---------------------------------------------------------2-------|
|---------------------------------------------------------0-------|

|--------------------------|
|--------------------------|
|--------------------------| (x2)
|--------------------------|
|-----2-----2-----2-----2--|
|-x-x---x-x---x-x---x-x----|

|-------------------------------------------|
|-------------------------------------------|
|--5--7--4----5--7--4---5--4--2-------------|
|--5--7--4----5--7--4---5--4--2-------------|
|--3--5--2----3--5--2---3--2--0-------------|
|-------------------------------------------|

|----------------------------------|
|----------------------------------|
|---------2---5-4---2--------------|
|-2-4-5-2---4-----4---5-0-5-4-2----|
|----------------------------------|
|----------------------------------|

|--------------------------|
|--------------------------|
|--------------------------| (x2)
|--------------------------|
|-----2-----2-----2-----2--|
|-x-x---x-x---x-x---x-x----|

|------------------------------------------------------|
|------------------------------------------------------|
|--5--7--4----5--7--4---5--4--2---/19-19-19-19-19------|
|--5--7--4----5--7--4---5--4--2---/19-19-19-19-19------|
|--3--5--2----3--5--2---3--2--0---/17-17-17-17-17------|
|------------------------------------------------------|

|--------2-------2-------2-------2---------------|
|--------3-------3-------3-------3---------------|
|--------2-------2-------2-------2---------------|
|---2-------2-------2-------2-----------2---4----|
|---2-------2-------2-------2--------------------|
|---0-------0-------0-------0--------------------|

SOLO:
|----------------------------------------------------------------------------|
|----------------------------------------------------------------------------|
|----------------------------------------------------------------------------|
|-2-/9--7-5-4-/12-9--14--12----12-16-14-16-17-16-14-16-17-b19----------------|
|---------------------------12-----------------------------------------------|
|----------------------------------------------------------------------------|


|-----------------------------------------------------------------------------------|
|----------------------------------------19--17-19-20-19-17-19-20-b22--17-----------|
|-9--/16-14-12-11-/19--16--/21--19----19--------------------------------------------|
|----------------------------------19-----------------------------------------------|
|-----------------------------------------------------------------------------------|
|-----------------------------------------------------------------------------------|

BRIDGE:


|-------12-------12--14--10------------------|
|----12-12--12---12--14--10------------------|
|-11----11-----------------------------------|
|--------------------------------------------|
|--------------------------------------------|
|--------------------------------------------|

|----------------------------------|
|---------2---5-4---2--------------|
|-2-4-5-2---4-----4---5-0-5-4------|
|----------------------------------|
|----------------------------------|
|----------------------------------|

|--------------------------|
|--------------------------|
|--------------------------| (x2)
|--------------------------|
|-----2-----2-----2-----2--|
|-x-x---x-x---x-x---x-x----|

|------------------------------------------------------|
|------------------------------------------------------|
|--5--7--4----5--7--4---5--4--2---/19-19-19-19-19------|
|--5--7--4----5--7--4---5--4--2---/19-19-19-19-19------|
|--3--5--2----3--5--2---3--2--0---/17-17-17-17-17------|
|------------------------------------------------------|

|--------2-------2-------2-------2---------------|
|--------3-------3-------3-------3---------------|
|--------2-------2-------2-------2---------------|
|---2-------2-------2-------2-----------2---4----|
|---2-------2-------2-------2--------------------|
|---0-------0-------0-------0--------------------|


|--------------------------------------------------|
|--------------------------------------------------|
|---------2---5-4---2------------------------------|
|-2-4-5-2---4-----4---5-0-5-4-2------2---4---------|
|--------------------------------------------------|
|--------------------------------------------------|
                                       
|----------------------------------|
|---------2---5-4---2--------------|
|-2-4-5-2---4-----4---5-0-5-4------|
|----------------------------------|
|----------------------------------|
|----------------------------------|

|--------2-------2-------2-------2---------------|
|--------3-------3-------3-------3---------------|
|--------2-------2-------2-------2---------------|
|---2-------2-------2-------2----------2-2-------|
|---2-------2-------2-------2----------2-2-------|
|---0-------0-------0-------0----------0-0-------|
Добавлено: 15.10.2013
Другие материалы по этой песне:
  • Аккорды и текст

Страница создана 15.10.2013
http://primanota.ru/pooh/laquila-e-il-falco-chords.htm
Привет, Гость.
Предлагаем пройти революционный курс по гитаре.
Подарок от PrimaNota.Ru, забирай!