PrimaNota.ru - самый крупный в мире бесплатный архив песенных текстов, аккордов, табулатур и нот


Pooh - Isabel - таба, видео

Регистрация Запомнить меня
Войти через:  Facebook Google Twitter Vk Yandex Mail.ru

Pooh - Isabel - таба, видео

Печатать
Просмотров: 81
p=pull off, h=hammer on

|----------------------------|
|----------------------------|
|-2----/4----2---------------|
|----------------------------|
|----------------------------|
|----------------------------|

|---------------------------------------|
|----9---------9-----9------------------|
|----9---------9-----9------------------|
|----7---------7-----7------------------|
|-------0-3-3-----2-----0-2-2-2-0-------|
|-0-------------------------------3-0---|

|---------------------------------------|
|----9---------9-----9------------------|
|----9---------9-----9------------------|
|----7---------7-----7-----7-9--7p5-----|
|-------0-3-3-----2-----/9----------7---|
|-0-------------------------------------|

|-----------|
|--9--9-----|
|--9--9-----|   (x3)
|--7--7-----|
|-----------|
|-----------|

|----------------------|
|----------------------|
|----------------------|
|-0h2p0----------------|
|----------------------|
|-------3--0-----------|

|---------------------------------------|
|----9---------9-----9------------------|
|----9---------9-----9------------------|
|----7---------7-----7------------------|
|-------0-3-3-----2-----0-2-2-2-0-------|
|-0-------------------------------3-0---|

|---------------------------------------|
|----9---------9-----9------------------|
|----9---------9-----9------------------|
|----7---------7-----7-----7-9--7p5-----|
|-------0-3-3-----2-----/9----------7---|
|-0-------------------------------------|

|-----------|
|--9--9-----|
|--9--9-----|   (x3)
|--7--7-----|
|-----------|
|-----------|

|-------------------------------------------------------------|
|------9-------9-------9--7-----9-------7-------7-------9--5--|
|------9-------9-------9--7-----9-------7-------7-------9--5--|
|------7-------7-------7--5-----7-------9-------9-------7--7--|
|-------------------------------------------------------------|
|-12\---------------------------------------------------------|

|---------------------------------------|
|----9---------9-----9------------------|
|----9---------9-----9------------------|
|----7---------7-----7------------------|
|-------0-3-3-----2-----0-2-2-2-0-------|
|-0-------------------------------3-0---|

|-------------------------------------|
|----9---------9-----9----------------|
|----9---------9-----9----------------|
|----7---------7-----7----------------|
|-------0-3-3-----2-----7-5-2---------|
|-0---------------------------3-------|

|------------------------------------------|
|----9---------9------7b-------------------|
|----9---------9---/9-----9----------------|
|----7---------7---------------------------|
|-------0-3-3----------------2-2-2-0-------|
|-0----------------------------------3-----|

|------------------------------------|
|----9---------9---------------------|
|----9---------9---------------------|
|----7---------7------5--7-5---------|
|-------0-3-3------/5----------------|
|-0----------------------------------|

|-----------|
|--9--9-----|
|--9--9-----|   (x3)
|--7--7-----|
|-----------|
|-----------|

|-------------------------------------------------------------|
|------9-------9-------9--7-----9-------7-------7-------9--5--|
|------9-------9-------9--7-----9-------7-------7-------9--5--|
|------7-------7-------7--5-----7-------9-------9-------7--7--|
|-------------------------------------------------------------|
|-12\---------------------------------------------------------|

|-----------------------------------------|
|-----------------------------------------|
|-/11---9------4--------------------------|
|------------7---4--2------6---6-9-6------|   (x2)
|----------------------------6-------6----|
|-----------------------------------------|

|-------------------------------------------|
|-------------------------------------------|
|-4-4-4-4-4-4-4-4-7-7-7-7-7-7-7-7--7--------|
|-4-4-4-4-4-4-4-4-7-7-7-7-7-7-7-7--7--------|
|-2-2-2-2-2-2-2-2-5-5-5-5-5-5-5-5--5--------|
|-------------------------------------------|

|----------------------------------|
|----------------------------------|
|-7--7--9--12----------------------|
|-7--7--9--12--7--7--12--12--------|  (x2)
|-5--5--7--10--7--7--12--12--------|
|--------------5--5--10--10--------|

|----------------------------18b20-17-----------------------18b20-17------------|
|------9-------9-------9-----------------9-------7-------7----------------------|
|------9-------9-------9-----------------9-------7-------7----------------------|
|------7-------7-------7-----------------7-------9-------9----------------------|
|-------------------------------------------------------------------------------|
|-12\---------------------------------------------------------------------------|

|-----------|
|--9--9-----|
|--9--9-----|   (x3)
|--7--7-----|
|-----------|
|-----------|

|-----------|
|-----------|
|-----------|
|--7-9------|
|------7----|
|-----------|
Добавлено: 10.08.2013
Другие материалы по этой песне:
  • Аккорды и текст

Страница создана 10.08.2013
http://primanota.ru/pooh/isabel-chords.htm
Привет, Гость.
Предлагаем пройти революционный курс по гитаре.
Подарок от PrimaNota.Ru, забирай!