PrimaNota.ru - самый крупный в мире бесплатный архив песенных текстов, аккордов, табулатур и нот


Pony Up - The Truth About Cats And Dogs Is That They Die - текст песни, таба, видео

Регистрация Запомнить меня
Войти через:  Facebook Google Twitter Vk Yandex Mail.ru

Pony Up - The Truth About Cats And Dogs Is That They Die - текст песни, таба, видео

Печатать
Просмотров: 96
Pony Up!
The Truth About Cats And Dogs (Is That They Die)

This is the basic make-up of the song, it would probably sound better with bar chords 
than power (I'm lazy). Listen to the song to get the parts properly.

Intro/Verse
|---------------------------------------------------------------------------|
|---------------------------------------------------------------------------|
|-12-12-----12-12-----12-12-----12-12-------9-9-----9-9-----9-9-----9-9-----|
|------10-10-----10-10-----10-10-----10-10------7-7-----7-7-----7-7-----7-7-|
|---------------------------------------------------------------------------|
|---------------------------------------------------------------------------|

Verse
|------------------------------------------|
|------------------------------------------|
|------------------------------------------|
|-10-10-10-10-10-10-10-10--7-7-7-7-7-7-7-7-|
|-10-10-10-10-10-10-10-10--7-7-7-7-7-7-7-7-|
|-8--8--8--8--8--8--8--8---5-5-5-5-5-5-5-5-|

Chorus
|------------------------------------------------|
|------------------------------------------------|
|------------------------------------------------|
|-10-10-10-10-10-10-10-10--12-12-12-12-12-12-7-7-|
|-10-10-10-10-10-10-10-10--12-12-12-12-12-12-7-7-|
|-8--8--8--8--8--8--8--8---10-10-10-10-10-10-5-5-|

Solo/Riff thing
|-12-12-12-12-------------------------------------------------------------------------|
|------------12-12-12-10h12-12-12-12-10\8-5-5-5-5-5/8-8/10-10/12-12-12-12-12-12-12-10-|
|-------------------------------------------------------------------------------------|
|-------------------------------------------------------------------------------------|
|-------------------------------------------------------------------------------------|
|-------------------------------------------------------------------------------------|

Chorus repeated out
|----------------------------------|
|----------------------------------|
|----------------------------------|
|-5-5-5-5-5-5-5-5--7-7-7-7-7-7-2-2-|
|-5-5-5-5-5-5-5-5--7-7—7-7-7-7-2-2-|
|-3-3-3-3-3-3-3-3--5-5-5-5-5-5-0-0-|
Добавлено: 13.07.2012
Другие материалы по этой песне:
  • Аккорды и текст

Страница создана 15.04.2012
http://primanota.ru/pony-up/the-truth-about-cats-and-dogs-is-that-they-die-chords.htm
Привет, Гость.
Предлагаем пройти революционный курс по гитаре.
Подарок от PrimaNota.Ru, забирай!