PrimaNota.ru - самый крупный в мире бесплатный архив песенных текстов, аккордов, табулатур и нот


Pontos Negros - Magnifico Material Inutil - таба, видео

Регистрация Запомнить меня
Войти через:  Facebook Google Twitter Vk Yandex Mail.ru

Pontos Negros - Magnifico Material Inutil - таба, видео

Печатать
Просмотров: 114
            Magnifico Material Inutil - Pontos Negros

            http://www.myspace.com/ospontosnegros

              Words and Music by Pontos Negros
              Transcribed by João Pedro

 I know, it's not 100% correct.

Intro

Guitar 1

e|--------------------------------------|
B|--------------------------------------|
G|--7--6-----7---6-----7--6-----7---6---|
D|--7--7-----7---7-----7--7-----7---7---|
A|--------------------------------------|
E|--------------------------------------|


Guitar 2

e|--------------------------------------|
B|--3--2-----3---2-----3--2-----3---2---|
G|--2--2-----2---2-----2--2-----2---2---|
D|--2--2-----2---2-----2--2-----2---2---|
A|--0--0-----0---0-----0--0-----0---0---|
E|--------------------------------------|


Guitar 1

e|--------------------------------------|
B|--------------------------------------|
G|--6--4-----6---4-----6--4-----6---4---|
D|--6--4-----6---4-----6--4-----6---4---|
A|--------------------------------------|
E|--------------------------------------|


Guitar 2

e|--------------------------------------|
B|--------------------------------------|
G|--2--1-----2---1-----2--1-----2---1---|
D|--2--2-----2---2-----2--2-----2---2---|
A|--2--2-----2---2-----2--2-----2---2---|
E|--0--0-----0---0-----0--0-----0---0---|


Verse


Guitar 1
                                      -------|
e|--------------------------------------  ---|
B|--------------------------------------  ---|
G|--7--6-----7---6-----7--6-----7---6---  ---|
D|--7--7-----7---7-----7--7-----7---7---  ---|
A|--------------------------------------  ---|
E|--------------------------------------  ---|
                                           |
Guitar 2                                   |
                                           |
e|-------------------------------          |
B|--2-2-2-2-2-2-2-2-2-2-2-2-2-2--          |
G|--2-2-2-2-2-2-2-2-2-2-2-2-2-2--          |
D|--2-2-2-2-2-2-2-2-2-2-2-2-2-2--          |
A|--0-0-0-0-0-0-0-0-0-0-0-0-0-0--          |
E|-------------------------------          |
    x x x x x x x x x x x x x x            |
                                           |   3x
                                           |
Guitar 1                                   |
                                           |
e|--------------------------------------   |
B|--------------------------------------   |
G|--6--4-----6---4-----6--4-----6---4---   |
D|--6--4-----6---4-----6--4-----6---4---   |
A|--------------------------------------   |
E|--------------------------------------   |
                                           |
                                           |
Guitar 2                                   |
                                           |
e|-------------------------------          |
B|-------------------------------          |
G|--1-1-1-1-1-1-1-1-1-1-1-1-1-1--          |
D|--2-2-2-2-2-2-2-2-2-2-2-2-2-2--          |
A|--2-2-2-2-2-2-2-2-2-2-2-2-2-2--          |
E|--0-0-0-0-0-0-0-0-0-0-0-0-0-0--          |
    x x x x x x x x x x x x x x            |
                                           |
                                    -------

Chorus

Guitar 1

e|---------------------------------------|
B|---------------------5-5---------------|
G|--7-7-7-6-4-----4-6-------7-6-4-4-4-6--|  2x and on the 3rd time
D|-------------7-------------------------|     you play this
A|---------------------------------------|         |
E|---------------------------------------|         |
                                                  |
Guitar 1                                          |
                                                  |
e|-----------------------------------            ---|
B|-----------------------------------            ---|
G|--7-7-7-6-4------------------------       <-------|
D|-------------7-9-10-11----------------------------|
A|--------------------------------------------------|
E|--------------------------------------------------|


Verse


Chorus


Solo

Both Guitars
                                          -------|
e|--1010101099997777-------------------------    |
B|------------------1010101099997777---------    |
G|----------------------------------99997----    |
D|-------------------------------------------    |
A|-------------------------------------------    |
E|-------------------------------------------    |
                                                 |  2x
e|--99997777--------------------------          ---|
B|----------1010101099997777----------          ---|
G|--------------------------999977776-          ---|
D|------------------------------------          ---|
A|------------------------------------          ---|
E|------------------------------------          ---|
                                          ---------|
Then play this
                                         ------------|
e|-------------------------------------------   -----|
B|-------------------------------------------   -----|
G|--7~--7-7-7-7-7-7-7------------------------   -----|
D|--7~--7-7-7-7-7-7-7--7~--7-7-7-7-7-7-7-7---   -----|  2x
A|--5~--5-5-5-5-5-5-5--7~--7-7-7-7-7-7-7-7---   -----|
E|---------------------5~--5-5-5-5-5-5-5-5---   -----|
        x x x x x x x      x x x x x x x x       |
                                           -------

Chorus


Guitar 1
                                        ----
e|---------------------------------------  |
B|---------------------5-5---------------  |
G|--7-7-7-6-4-----4-6-------7-6-4-4-4-6--  |   4x
D|-------------7-------------------------  |
A|---------------------------------------  |
E|---------------------------------------  |
                                        ----

Then play this

Guitar 1

e|-----------------------------|
B|-----5----5----5----5----5---|
G|--4h6--4h6--4h6--4h6--4h6----|
D|-----------------------------|
A|-----------------------------|
E|-----------------------------|

Outro

Guitar 1

e|---------------------------------------|
B|---------------------------------------|
G|--7--6-----7---6-----7--6-----7-6~-----|
D|--7--7-----7---7-----7--7-----7-7~-----|
A|---------------------------------------|
E|---------------------------------------|


Guitar 2

e|---------------------------------------|
B|--3--2-----3---2-----3--2-----3-2~-----|
G|--2--2-----2---2-----2--2-----2-2~-----|
D|--2--2-----2---2-----2--2-----2-2~-----|
A|--0--0-----0---0-----0--0-----0-0~-----|
E|---------------------------------------|


Legend
------

h - hammer-on
p - pull-off
x - palm muting
~ - let ring

Hope you enjoi it
Добавлено: 05.06.2012
Вам также может быть интересно:
Другие материалы по этой песне:
  • Аккорды и текст

Страница создана 05.06.2012
http://primanota.ru/pontos-negros/magnifico-material-inutil-chords.htm
Привет, Гость.
Предлагаем пройти революционный курс по гитаре.
Подарок от PrimaNota.Ru, забирай!