PrimaNota.ru - самый крупный в мире бесплатный архив песенных текстов, аккордов, табулатур и нот


Pond - Midnight Mass Live On Kexp - таба, видео

Регистрация Запомнить меня
Войти через:  Facebook Google Twitter Vk Yandex Mail.ru

Pond - Midnight Mass Live On Kexp - таба, видео

Печатать
Просмотров: 93
Уроки эстрадного вокала в Санкт-Петербурге
-------------------------------------------------------------------------------
                             Pond - Midnight Mass (Live on KEXP)
-------------------------------------------------------------------------------
Tabbed by: Piero Farfán
E-mail: systemoze@gmail.com

My first tab, i'm pretty sure it sounds like the original, you decide

Tuning: EADGBe

INTRO VERSE Guitar 1 with vibrato, chorus and reverb

e|-----5----5-------5--------9---9----9--9-------9--------9----9---9----9----|
B|-----5-----5-----5-5-------9----9---9---9-----10---A----9-----9--9-----9---|
G|-----6------6---6---6------9-----9--9----9 ---11---R----9------9-9------9--|
D|-----7-------7-7----------11--------11--------11---P---11--------11--------|
A|-------------------------------------------------9-------------------------|
E|---------------------------------------------------------------------------|

e|-----2----------4---------5--------7---------------------------------------|
B|-----3----------5---------7--------9---------------------------------------|
G|-----4----------6---------7--------9---------------------------------------|
D|-----4----------6---------7--------9---------------------------------------|
A|-----2----------4---------5--------7---------------------------------------|
E|-----2----------4---------5--------7---------------------------------------|

Fuzzy guitar

e|----------------------------------------------------12b13------------------|
B|---------------------------------------------------------------------------|
G|---------------------------------------------------------------------------|
D|---------------------------------------------------------------------------|
A|---8--7----8--7---------8--7----8--7---------------------------- 3---------|
E|----------------8--------------------8------1--0------------1--0-----------|

e|---------------------------------------------------------------------------|
B|---------------------------------------------------------------------------|
G|---------------------------------------------------------------------------|
D|---------------------------------------------------------------------------|
A|---------------------------------------------------------------------------|
E|---1--0-------1--3--5--7-s-9~----------------------------------------------|

Guitar 2 plays the same with a variation 

e|---------------------------------------------------------------------------|
B|---------------------------------------------------------------------------|
G|---------------------------------------------------------------------------|
D|---------------------------------------------------------------------------|
A|-8-7----8-7----8-7----8-7---------------3----------8--10--12--14-s-16~-----|
E|------------8------------8----1-0---1-0-----1-0----------------------------|

Guitar 2 remains silent. Guitar 1 with arpeggios: 

e|----------------------------------------9------9------9--------------------|
B|----------------------------------------9------10-----9--------------------|
G|----------------------------------------9------11-----9--------------------|
D|---------------------------------------11------11----11--------------------|
A|---------------------------------------------------------------------------|
E|---------------------------------------------------------------------------|

e|-----2----------4---------5--------7---------------------------------------|
B|-----3----------5---------7--------9---------------------------------------|
G|-----4----------6---------7--------9---------------------------------------|
D|-----4----------6---------7--------9---------------------------------------|
A|-----2----------4---------5--------7---------------------------------------|
E|-----2----------4---------5--------7---------------------------------------|

e|---------------------------------------------------------------------------|
B|---------------------------------------------------------------------------|
G|---------------------------------------------------------------------------|
D|---------------------------------------------------------------------------|
A|---8--7----8--7---------8--7----8--7---------------------------------------|
E|----------------8--------------------8-------------------------------------|

e|-------------------|     |----------------------------------------------------|
B|-------------------|     |----------------------------------------------------|
G|-------------------| x5  |----------------------------------------------------|
D|-------------------|     |----------------------------------------------------|
A|-----------------3-|     |----------------------------------------------------|
E|---1--0-----1--0---|     |-----1--0--------------1--3--5--7-s-9~--------------|

e|---------7--7--4--4--5--5--3--3--4--4--3--3--5--5--4--4--------------------|
B|-----------0--0--0--0--0--0--0--0--0--0--0--0--0--0--0--0------------------|
G|---------------------------------------------------------------------------|
D|---------------------------------------------------------------------------| X3
A|---------------------------------------------------------------------------|
E|---------------------------------------------------------------------------|

Amazing outro played by guitar 2, guitar 1 plays ramdom stuff with the arpeggio just above

e|----------------/14----------/14----------/14------------------------------|
B|---------15-14-12-----15-14-12-----15-14-12-----15-14-12-------------------|
G|----------------------------------------------------------14-13------------|
D|---------------------------------------------------------------------------|
A|---------------------------------------------------------------------------|
E|---------------------------------------------------------------------------|

************************************

| /   slide up
| \   slide down
| h   hammer-on
| ~   vibrato
| b   Bend

************************************
Добавлено: 18.05.2016
Другие материалы по этой песне:
  • Аккорды и текст

Страница создана 18.05.2016
http://primanota.ru/pond/midnight-mass-live-on-kexp-chords.htm
Привет, Гость.
Предлагаем пройти революционный курс по гитаре.
Подарок от PrimaNota.Ru, забирай!