PrimaNota.ru - самый крупный в мире бесплатный архив песенных текстов, аккордов, табулатур и нот


Pond - Holding Out For You - таба, видео

Регистрация Запомнить меня
Войти через:  Facebook Google Twitter Vk Yandex Mail.ru

Pond - Holding Out For You - таба, видео

Печатать
Просмотров: 83
Holding Out For You - Pond tab (Intro)

E|-----------------------------------------------------------------
B|-----------------------------------------------------------------
G|-----------6------------8--9-----9--8--6--6--8/11--11-11--8------
D|--6--8--9-----9--6--------------------------------------------9--
A|-----------------------------------------------------------------
E|-----------------------------------------------------------------

E|----------------------------------------------------------------------------------------------------
B|----------------------------------------------------------------------------------------------------
G|-----8---8-----------------------6-----------6--8-9------9--8--6--6------6---9--6-------------------
D|--9---9-----9--4-----4--6--8--9-----9--6-------------------------------------------9--6-8h9--9-8-9--
A|----------------------------------------------------------------------------------------------------
E|----------------------------------------------------------------------------------------------------
Добавлено: 18.05.2016
Вам также может быть интересно:
Другие материалы по этой песне:
  • Аккорды и текст

Страница создана 18.05.2016
http://primanota.ru/pond/holding-out-for-you-chords.htm
Привет, Гость.
Предлагаем пройти революционный курс по гитаре.
Подарок от PrimaNota.Ru, забирай!