PrimaNota.ru - самый крупный в мире бесплатный архив песенных текстов, аккордов, табулатур и нот


Pomegranate Tiger - Gift Of Tongues - таба, видео

Регистрация Запомнить меня
Войти через:  Facebook Google Twitter Vk Yandex Mail.ru

Pomegranate Tiger - Gift Of Tongues - таба, видео

Печатать
Просмотров: 45
POMEGRANATE TIGER - Gift of Tongues
from the album Entities (2013)

The Chords:
e-10-----12---13---|-------------|-5-----8/10--------------|-10-----9-----|
B-10-----14---15---|-6-----------|-6----------8-6----6-8-6-|--8-----8-----|
G-10-----14---14---|-8-----8-----|-7-----7------7----7-7-7-|--9-----9-----|
D-12---------------|-8-----8-----|-8-----8------7----7-----|--8-----7-----|
A-12---------------|-8-----8-----|-------------------------|--------------|
E-10---------------|-------6-----|-------------------------|--------------|

e-10-----12---13---|-------------|-6-----------13---11---|--8------------|
B-10-----14---15---|-6-----------|-6-----------11---11---|--6------6-----|
G-10-----14---14---|-8-----8-----|-6-------5-6-11---11---|--8------8-----|
D-12---------------|-8-----8-----|-4-----8-----11---11---|-10-----10-----|
A-12---------------|-8-----8-----|-----------------------|---------------|
E-10---------------|-------6-----|-----------------------|---------------|

repeat The Chords once

The Arpeggios:
e----------------10-12p10-13p10------11p6-----------------3-6/-|
B-------------10----------------10\8------6-------------4------|
G----------10-------------------------------8---------3--------|
D-------12------------------------------------8-----5----------|
A----12-----------------------------------------8-6------------|
E-10-----------------------------------------------------------|

e-/17p13-------------------------13-17/22p17-------------------------------|
B--------15-------------------15-------------20----------------------------|
G-----------14-------------14-------------------19-------------------------|
D--------------15-------15-------------------------19\17-------------------|
A-----------------17-17----------------------------------17p15-------15\12-|
E--------------------------------------------------------------17p15-------|

e----------------10-12p10-13p10------11p6-----------------3-6/-|
B-------------10----------------10\8------6-------------4------|
G----------10-------------------------------8---------3--------|
D-------12------------------------------------8-----5----------|
A----12-----------------------------------------8-6------------|
E-10-----------------------------------------------------------|

e---------------13-14p13-------------------------------------|
B------------14----------14----------------6-----------------|
G------10/11----------------11\10--------5---5---------------|
D---11----------------------------11---6-------6-------------|
A-9----------------------------------8-----------8-----------|
E--------------------------------------------------8-4-8p4-1-|

repeat The Arpeggios once
Добавлено: 21.06.2015
Другие материалы по этой песне:
  • Аккорды и текст

Страница создана 21.06.2015
http://primanota.ru/pomegranate-tiger/gift-of-tongues-chords.htm
Привет, Гость.
Предлагаем пройти революционный курс по гитаре.
Подарок от PrimaNota.Ru, забирай!