PrimaNota.ru - самый крупный в мире бесплатный архив песенных текстов, аккордов, табулатур и нот


Polysics - You-you-you - таба, видео

Регистрация Запомнить меня
Войти через:  Facebook Google Twitter Vk Yandex Mail.ru

Polysics - You-you-you - таба, видео

Печатать
Просмотров: 108
Intro:
                  C
E|------------------------------------|
B|---5-5---5-5---5-5---5-5---5-5-5----|
G|---5-5---5-5---5-5---5-5---5-5-5----|
D|---5-5---5-5---5-5---5-5---5-5-5----| (x2)
A|---3-3---3-3---3-5---3-3---3-3-3----|
E|------------------------------------|

    C5      G5      A5      F5    G5
E|-------|-------|-------|----------------|
B|-------|-------|-------|----------------|
G|---5---|-------|-------|----------------|
D|---5---|---5---|---7---|---3-----5------|
A|---3---|---5---|---7---|---3-----5------|
E|-------|---3---|---5---|---1-----3------|
  |-x16-| |-x16-| |-x16-| |-x8-| |-x8-----|

                 C5                             G5
E|--------------------------------|---------------------------------|
B|--------------------------------|---------------------------------|
G|---5----5-5----5--5----5-5-5-5--|---------------------------------|
D|---5----5-5----5--5----5-5-5-5--|---5----5-5----5--5----5-5-5-5---|
A|---3----3-3----5--3----3-3-3-3--|---5----5-5----5--5----5-5-5-5---|
E|--------------------------------|---3----3-3----3--3----3-3-3-3---|
           A5                   F5   C5
E|---------------------------|------------|
B|---------------------------|------------|
G|---------------------------|------------|
D|---7----7-7----7----7-7----|---3----5---|
A|---7----7-7----7----7-7----|---3----5---|
E|---5----5-5----5----5-5----|---1----3---|
                               |x8| |x8|

Verse and Chorus go with the same chords.

At the end of the Chorus play:

E|------------------|
B|------------------|
G|------------------|
D|---3-------5-5-5--|
A|---3-------5-5-5--|
E|---1-------3-3-5--|


2nd Verse:

E|---------------------------|------------------------|
B|---------------------------|------------------------|
G|---------------------------|------------------------|
D|---2---5---2-2--5-----2----|--2---5---2-2--5----2---|
A|-------------------3-------|------------------------|
E|---------------------------|------------------------|

E|---------------------------|---3-----------5----------|
B|---------------------------|------1-------------------|
G|---2---5---2-2--5-----2----|---------0----------------|
D|---------------------------|--------------------------|
A|---------------------------|--------------------------|
E|---------------------------|--------------------------|


Solo:

E|-----------------------------|---------------------------------|
B|-----------------------------|---------------------------------|
G|-----------------------------|--------0-2-2-2-0-2-0--2--0-2----|
D|-------2---3--3/5---3---2----|--0-2-3--------------------------|
A|---3-------------------------|---------------------------------|
E|-----------------------------|---------------------------------|

E|---------------------------------|-----------------------------------------|
B|---------------------------------|-----------------------------------------|
G|-2-5-4-2-0-------------------0-2-|-0--5-2p0--5-2p0--5-2p0--5-2p0-5-2-2-0-0-|
D|-----------3-2-0-------0-2-3-----|-----------------------------------------|
A|-----------------3-2-3-----------|-----------------------------------------|
E|---------------------------------|-----------------------------------------|


Bridge to the last Chorus:

"Thank's Thank's Thank's..."
E|-------------------------------|
B|-------------------------------|
G|-------------------------------|
D|---3---3---3---3----3--4--5----|    (x2)
A|---3---3---3---1----3--4--5----|
E|---1---1---1---1----1--2--3----|
Добавлено: 30.06.2012
Другие материалы по этой песне:
  • Аккорды и текст

Страница создана 30.06.2012
http://primanota.ru/polysics/you-you-you-chords.htm
Привет, Гость.
Предлагаем пройти революционный курс по гитаре.
Подарок от PrimaNota.Ru, забирай!