PrimaNota.ru - самый крупный в мире бесплатный архив песенных текстов, аккордов, табулатур и нот


Polysics - Poly-farm - таба, видео

Регистрация Запомнить меня
Войти через:  Facebook Google Twitter Vk Yandex Mail.ru

Polysics - Poly-farm - таба, видео

Печатать
Просмотров: 155
Уроки эстрадного вокала в Санкт-Петербурге
e|-----------------------------------------------------|
B|-----------------------------------------------------|
G|-----------------------------------------------------|
D|-----------------------------------------------------|   (2x)
A|------------2--3--3--2--------------2--3--3--2-------|
E|---0--0--3--------------3--0--0--3--------------3----|


e|-----------------------------------------------------|
B|-----------------------------------------------------|
G|-----------------------------------------------------|
D|------------2--3--3--2--------------2--3--3--2-------|   
A|---0--0--3--------------3--0--0--3--------------3----|
E|-----------------------------------------------------|


e|-----------------------------------------------------|
B|-----------------------------------------------------|
G|-----------------------------------------------------|
D|-----------------------------------------------------|   (2x)
A|------------2--3--3--2--------------2--3--3--2-------|
E|---0--0--3--------------3--0--0--3--------------3----|


e|--------------------------------------------12---|
B|--------------------------------------------12---|
G|-------------------------------------------------|
D|---9--9--9----9--8--8--8--7--7--7----------------|
A|---9--9--9----9--8--8--8--7--7--7----------------|
E|---7--7--7----7--7--7--7--5--5--5----------------|

Then repeat

Добавлено: 12.03.2012
Вам также может быть интересно:
Другие материалы по этой песне:
  • Аккорды и текст

Страница создана 12.03.2012
http://primanota.ru/polysics/poly-farm-chords.htm
Привет, Гость.
Предлагаем пройти революционный курс по гитаре.
Подарок от PrimaNota.Ru, забирай!