PrimaNota.ru - самый крупный в мире бесплатный архив песенных текстов, аккордов, табулатур и нот


Polysics - Lets Go - бас-таба, видео

Регистрация Запомнить меня
Войти через:  Facebook Google Twitter Vk Yandex Mail.ru

Polysics - Lets Go - бас-таба, видео

Печатать
Просмотров: 175
Новый альбом группы 'Черный Кузнец' по культовому сериалу 'Сверхъестественное'!
Polysics - Let's Go
For Young Electric Pop
Bassist - Fumi
Tabbed by: myspace.com/jenovaisback

G|-----------|
D|-----------|
A|-222-2-22--|
E|-----------|

G|----------------|
D|----------------|
A|-012-012-015501-|
E|----------------|

G|-----------------|
D|-----------------|
A|2-012-012-015501-| x7
E|-----------------|

G|---------------|
D|---------4-----|
A|--------4-4----|
E|3--3-332---5-5-|

G|---------|
D|---0---2-|
A|202-202--| x2
E|---------|

G|---------------|
D|---------4-----|
A|--------4-4----|
E|3--3-332---5-5-|

G|---------|
D|---0---2-|
A|202-202--| x3
E|---------|

G|-------------|
D|---0---------|
A|202-222-2-22-| 
E|-------------|

G|----------------|
D|----------------|
A|-012-012-015501-|
E|----------------|

G|-----------------|
D|-----------------|
A|2-012-012-015501-| x3
E|-----------------|

G|---------------|
D|---------4-----|
A|--------4-4----|
E|3--3-332---5-5-|

G|---------|
D|---0---2-|
A|202-202--| x2
E|---------|

G|---------------|
D|---------4-----|
A|--------4-4----|
E|3--3-332---5-5-|

G|---------|
D|---0---2-|
A|202-202--| x3
E|---------|

G|-------------|
D|---0---------|
A|202-222-2-22-| 
E|-------------|

G|--------------------|
D|--------------------|
A|2225-2225-2225-2220-| x7
E|--------------------|

G|--------------------|
D|--------------------|
A|2225-2225-2-2-2-----|
E|--------------------|

G|-----------------|
D|-----------------|
A|2-012-012-015501-| x8
E|-----------------|

G|---------------|
D|---------4-----|
A|--------4-4----|
E|3--3-332---5-5-|

G|---------|
D|---0---2-|
A|202-202--| x2
E|---------|

G|---------------|
D|---------4-----|
A|--------4-4----|
E|3--3-332---5-5-|

G|---------|
D|---0---2-|
A|202-202--| x7
E|---------|

G|-------------|
D|---0---------|
A|202-222-2-22-| 
E|-------------|

G|----------------|
D|----------------|
A|--57--57--57--57| x4
E|77--77--77--77--|

G|----------------|
D|----------------|
A|--57--57--57----| x3
E|77--77--77--7756|

G|----------------|
D|----------------|
A|--57--57--57--57|
E|77--77--77--77--|
Добавлено: 15.03.2012
Другие материалы по этой песне:
  • Аккорды и текст

Страница создана 15.03.2012
http://primanota.ru/polysics/lets-go-chords.htm
Привет, Гость.
Предлагаем пройти революционный курс по гитаре.
Подарок от PrimaNota.Ru, забирай!