PrimaNota.ru - самый крупный в мире бесплатный архив песенных текстов, аккордов, табулатур и нот


Polysics - Ganbare Mirinda - бас-таба, видео

Регистрация Запомнить меня
Войти через:  Facebook Google Twitter Vk Yandex Mail.ru

Polysics - Ganbare Mirinda - бас-таба, видео

Печатать
Просмотров: 121
Новый альбом группы 'Черный Кузнец' по культовому сериалу 'Сверхъестественное'!
Polysics - Ganbare Mirinda
National P
Bassist - Fumi
facebook.com/guybrusht

Standard Tuning

/ = slide up

\ = slide down

G|-----|
D|-----|
A|-----|
E|-13/-|

G|-------------------------------------------6---|
D|---6h8---------6h8---------6h8---------6h8---8-|
A|-------6h8---------6h8---------6h8-------------| x4
E|-6---------4/6---------4/6---------4/6---------|

G|----8----9----8---------|
D|-8----8----8----8/------|
A|------------------------|
E|---------------------9/-|

G|-------------------------------------------6---|
D|---6h8---------6h8---------6h8---------6h8---8-|
A|-------6h8---------6h8---------6h8-------------| x2
E|-6---------4/6---------4/6---------4/6---------|

G|----8----9----8---------|
D|-8----8----8----8/------|
A|------------------------|
E|---------------------9/-|

G|-------------------------------------------6---|
D|---6h8---------6h8---------6h8---------6h8---8-|
A|-------6h8---------6h8---------6h8-------------| x6
E|-6---------4/6---------4/6---------4/6---------|

G|----8----9----8---------|
D|-8----8----8----8/------|
A|------------------------|
E|---------------------9/-|

G|-------------------------------------------6---|
D|---6h8---------6h8---------6h8---------6h8---8-|
A|-------6h8---------6h8---------6h8-------------| x2
E|-6---------4/6---------4/6---------4/6---------|

G|----8----9----8----9----8----9----8---------|
D|-8----8----8----8----8----8----8----8/------|
A|--------------------------------------------|
E|-----------------------------------------9/-|

G|-------------------------------------------6---|
D|---6h8---------6h8---------6h8---------6h8---8-|
A|-------6h8---------6h8---------6h8-------------| x4
E|-6---------4/6---------4/6---------4/6---------|

G|------------|
D|------------|
A|------------| x8
E|-6-6-99-11/-|

G|-------------------------------------------6---|
D|---6h8---------6h8---------6h8---------6h8---8-|
A|-------6h8---------6h8---------6h8-------------| x2
E|-6---------4/6---------4/6---------4/6---------|
Добавлено: 28.03.2012
Другие материалы по этой песне:
  • Аккорды и текст

Страница создана 28.03.2012
http://primanota.ru/polysics/ganbare-mirinda-chords.htm
Привет, Гость.
Предлагаем пройти революционный курс по гитаре.
Подарок от PrimaNota.Ru, забирай!