PrimaNota.ru - самый крупный в мире бесплатный архив песенных текстов, аккордов, табулатур и нот


Polyphonic Spree - Wonderful for you - таба, видео

Регистрация Запомнить меня
Войти через:  Facebook Google Twitter Vk Yandex Mail.ru

Polyphonic Spree - Wonderful for you - таба, видео

Печатать
Просмотров: 105



Date: Sun, 1 Jan 2006 15:55:07 -0600 (CST)
From: costanzi@stolaf.edu
Subject: p/polyphonic_spree/wonderful_for_you.tab

#-----------------------------------------------------------------------------#
#-- File created with Instab - http://www.pconline.com/~smcarey/instab.html --#
#-----------------------------------------------------------------------------#

Author/Artist: The Polyphonic Spree
Title: Wonderful For You
Album: Thumbsucker Soundtrack
Transcribed by: Nick Costanzi
Email: costanzi@stolaf.edu

So there really isn't a traditional verse and chorus in this song, but
it seemed easiest to split it up that way anyway. Just listen to the
recording to
figure out what parts go where. Later in the song, the chorus is preceded
buy a few of the
C7 figures; once again, just listen to figure out where they go. It's not
too tough to figure
out.

Have fun.

Verse:

 C7                      Cm7
----------------------------------------------------|
----------------------------------------------------|
-------0-----------0-----------0-----------0-------o|
-----8---8-------8---8-------8---8-------8---8-----o|
---7-------7---7-------7---6-------6---6-------6----|
-8-----------8-----------8-----------8--------------|

Chorus:

  Bb6         Bb6/A       G(m)
------------------------------------------|
------------------------------------------|
--------0-----------0-----------0---------|
------8---8-------8---8-------5---5-------|
----8-------8---8-------8---5-------5-----|
--6-----------5-----------3-----------3---|


Добавлено: 16.11.2013
Другие материалы по этой песне:
  • Аккорды и текст

Страница создана 16.11.2013
http://primanota.ru/polyphonic-spree/wonderful-for-you-chords.htm
Привет, Гость.
Предлагаем пройти революционный курс по гитаре.
Подарок от PrimaNota.Ru, забирай!