PrimaNota.ru - самый крупный в мире бесплатный архив песенных текстов, аккордов, табулатур и нот


Polyphonic Spree - Hanging Around The Day Part 2 - аккорды и текст, видео

Регистрация Запомнить меня
Войти через:  Facebook Google Twitter Vk Yandex Mail.ru

Polyphonic Spree - Hanging Around The Day Part 2 - аккорды и текст, видео

Печатать
Просмотров: 71
Hanging Around The Day Part 2
Polyphonic Spree
Title: Hanging Around The Day Part 2
Band: The Polyphonic Spree
Album: The Beginning Stages Of...(2002)

tabbed by scef (email: funnell_teen_spirit@yahoo.com)

surely one of the catchiest songs of the year! the
album's damn good too, i challenge you people to tab
out the last song on it, a long day...

i do believe (said in the voice of the comic book guy
in the simpsons) that there is a capo on the 2nd fret,
so in the tab below an open played string (ie fret 0)
would actually sound on the 2nd fret with the capo,
and likewise where there is a 3rd fred note below it
would actually sound the 5th fret with the capo, if
that makes any sense at all...

intro (and carry on playing through verse)
e-----------------|-----------------|
B-----------------|-----------------|
G-----0-------0---|-----0-------0---|
D-----------------|-----------------|
A---7---7---7-----|---7---7---7-----|
E-8---------------|-7---------------|

e-----------------|-----------------|
B-----------------|-----------------|
G-----0-------0---|-----0-----------|
D-----------------|-------0---0-----|
A---7---7---7-----|---5---------3---|
E-5---------------|-3---------------|


chorus (palm mute slightly)

play this bit 4 times
e---------------------|-----------------|
B---------------------|-----------------|
G---------------------|-----------------|
D-10-10-10-10-7-7-7-7-|-5-5-5-5-5-5-5-5-|
A-10-10-10-10-7-7-7-7-|-5-5-5-5-5-5-5-5-|
E-8--8--8--8--5-5-5-5-|-3-3-3-3-3-3-3-3-|

("God only knows...")
e-----------------|-----------------|
B-----------------|-----------------|
G-7-7-7-7-7-7-7-7-|-7-7-7-7-7-7-7-7-|
D-7-7-7-7-7-7-7-7-|-7-7-7-7-7-7-7-7-|
A-5-5-5-5-5-5-5-5-|-5-5-5-5-5-5-5-5-|
E-----------------|-----------------|


back to intro/verse riff and play it several times,
but play these 2 bars before the chorus instead of the
last 2 bars of the riff (palm muted slightly)
e-----------------|-----------------|
B-----------------|-----------------|
G-----------------|-----------------|
D-7-7-7-7-7-7-7-7-|-5-5-5-5-5-5-5-5-|
A-7-7-7-7-7-7-7-7-|-5-5-5-5-5-5-5-5-|
E-5-5-5-5-5-5-5-5-|-3-3-3-3-3-3-3-3-|


then, obviously, the chorus, but this time don't play
the bit from above under where it says "God only
knows..." cos it isn't used, instead it's the other
bit of the chorus loads of times until the rather
abrupt ending (listen to the song if that made no
sense, which is more than likely)

there you go wasn't so bad now was it? i'll probably
take a look over the rest of the album but there's not
much guitar work in it so there won't be much (if any)
to come...have fun
     
Добавлено: 05.07.2013
Другие материалы по этой песне:
  • Аккорды и текст

Страница создана 05.07.2013
http://primanota.ru/polyphonic-spree/hanging-around-the-day-part-2-chords.htm
Привет, Гость.
Предлагаем пройти революционный курс по гитаре.
Подарок от PrimaNota.Ru, забирай!