PrimaNota.ru - самый крупный в мире бесплатный архив песенных текстов, аккордов, табулатур и нот


Polyphia - Inspire - таба, видео

Регистрация Запомнить меня
Войти через:  Facebook Google Twitter Vk Yandex Mail.ru

Polyphia - Inspire - таба, видео

Печатать
Просмотров: 98
Уроки эстрадного вокала в Санкт-Петербурге
-------------------------------------------------------------------------------
                            Polyphia-Inspire
-------------------------------------------------------------------------------
Tabbed by: deadbunny

Tuning: DADGBE

Intro:

e|------------------------------------|------------------|---------------|---|
B|------------------------------------|-6--6--6--6--6--6-|---------------|---|
G|-3--3--3--3--3--3--3--3--3--3--3--3-|-7--7--7--7--7--7-|-5--5--5--5--5-|---| x2
D|-5--5--5--5--5--5--5--5--5--5--5--5-|-8--8--8--8--8--8-|-7--7--7--7--7-|---|
A|-1--1--1--1--1--1--1--1--1--1--1--1-|-5--5--5--5--5--5-|-3--3--3--3--3-|---|
D|-1--1--1--1--1--1--1--1--1--1--1--1-|-5--5--5--5--5--5-|-3--3--3--3--3-|-0-|

Intro Solo:

e|---------------------------|--------------------------------------------|
B|---------------------------|--------------------------------------------|
G|-12/14---------------------|--------------10-12/14-15----------10-12-14-|
D|-------12/15-17------------|------8-10/12-------------12-10-------------|
A|----------------15-13-12\8-|-8-10---------------------------13----------|
D|---------------------------|--------------------------------------------|



************************************

| /   slide up
| \   slide down
| h   hammer-on
| p   pull-off
| ~   vibrato
| +   harmonic
| x   Mute note
| b   Bend
| pb  Pre-bend
| br  Bend release
| pbr Pre-bend release
| brb Bend release bend

************************************
Добавлено: 07.03.2016
Другие материалы по этой песне:

Страница создана 28.09.2014
http://primanota.ru/polyphia/inspire-chords.htm
Привет, Гость.
Предлагаем пройти революционный курс по гитаре.
Подарок от PrimaNota.Ru, забирай!