PrimaNota.ru - самый крупный в мире бесплатный архив песенных текстов, аккордов, табулатур и нот


Polvo - Right The Relation - таба, видео

Регистрация Запомнить меня
Войти через:  Facebook Google Twitter Vk Yandex Mail.ru

Polvo - Right The Relation - таба, видео

Печатать
Просмотров: 71
TUNING: C#G#C#F#G#C#

b - bend
h - hammer
p - pull
r - let ring
/ - slide


All the parts to the song, easy enough to figure out what order/how many times 
they need to be played..


c#--------------------------------------------------------------|
g#--------------------------------------------------------------|
f#------------------9--13-11------------------------------------|
c#-9-9-----9/7-7---11--15-13--9-9-----9-9-9--12b-12-12-12-12-12-|
g#-9-9-11b-9/7-9b--10--14-12--9-9-11b-9-9-9--11b-11-11-11-11-11-|
c#-9-9-----9/7-7--------------9-9-----9-9-9---------------------|

c#--------------------------------------------------------------------------|
g#--------------------------------------------------------------------------|
f#--------------------------------------------------------------------------|
c#-9-9-9-9-9-9-9-9--5-5--7--7-x-7h9-7-7-------------------------------------|
g#-9-9-9-9-9-9-9-9--5-5--7--7-x-7h9-7-7--5b-------------/8b-------------/10-|
c#-9-9-9-9-9-9-9-9--5-5--7--7-x-7h9-7-7-----7b---0--3/7----0-3-3---8/12-----|

c#-----------------------------------------------------------------|
g#-----------------------------------------------------------------|
f#-10--12--9--12--9h10h9h10h9---9--9--3h0h3h0h3h0------------------|
c#-10--12--9--12----------------9--9-------------------------------|
g#------------------------------0--0--------------10/(right hand)--|
c#-----------------------------------------------------------------|

c#-------------9h10h9h10h9--------7h8h7h8h7-|
g#------------------------------------------|
f#-10-12-13-12------------------------------|
c#-10-12-12-12------------------------------|
g#------------------------------------------|
c#-------------------------(16/7)-----------|

c#--------------------------------------------------------------------------|
g#--------------------------------------------------------------------------|
f#-10-10-12--14-12h14h12--10/9-9-10/12r--10/9-9--9h10-12b---10-12r--7/9-7/9-|
c#-10-10-12----------------8/7-7--8/10r---8/7-7-------------10-12r--5/7-5/7-|
g#-------------------------8/7-7--8/10r---8/7-7---------------------5/7-5/7-|
c#--------------------------------------------------------------------------|

----------10------------------------|
-8p7--8p7---------------------------|
----7---------10-10-12----10-12-12b-|
---------------8--8-10-/12----------|
---------------8--8-10--------------|
------------------------------------|

c#-------------------------------------|
g#-------------------------------------|
f#-10-10-10/12-14-12h14h12-10-9-9------|
c#-10-10-10/12--------------8-7-7--5-3-|
g#--------------------------8-7-7--5-3-|
c#---------------------------------5-3-|

c#----------------------------------11h12-14bb-14-12-11r-11/0-|
g#----------------------------12h14---------------------------|
f#---------9h7-11b--------------------------------------------|
c#-----7h9--------12-11r-11/0---------------------------------|
g#-7h9--------------------------------------------------------|
c#------------------------------------------------------------|



c#---------------|
g#---------------|
f#-10--12--9--12-|
c#-10--12--9--12-|
g#---------------|
c#---------------|

c#---------|
g#---------|
f#-9r--12r-|
c#-7r--10r-|
g#-7r--10r-|
c#-7r--10r-|
Добавлено: 22.12.2013
Вам также может быть интересно:
Другие материалы по этой песне:
  • Аккорды и текст

Страница создана 22.12.2013
http://primanota.ru/polvo/right-the-relation-chords.htm
Привет, Гость.
Предлагаем пройти революционный курс по гитаре.
Подарок от PrimaNota.Ru, забирай!