PrimaNota.ru - самый крупный в мире бесплатный архив песенных текстов, аккордов, табулатур и нот


Polvo - Beggars Bowl - таба, видео

Регистрация Запомнить меня
Войти через:  Facebook Google Twitter Vk Yandex Mail.ru

Polvo - Beggars Bowl - таба, видео

Печатать
Просмотров: 65
TUNING: D#A#D#G#A#D#

b - bend
h - hammer
p - pull
r - let ring
/ - slide




D#-12----12--15-14----|
A#----15-----------15-|
G#--------------------|
D#--------------------|
A#--------------------|
D#--------------------|

D#---------------------------------------------------------------------------------------|
A#---------------------------------------------------------------------------------------|
G#------------------------10-10-9-9--5-3-5----------------------------10-10-9-9--5-3-5---|
D#-7-7-7-7-------8-10b10---9--9-7-7--3-3-3-----7-7-7-7-------8-10b10---9--9-7-7--3-3-3---|
A#-5-5-5-5--8h10-----------9--9-7-7--3-3-3-----5-5-5-5--8h10-----------9--9-7-7--3-3-3---|
D#-0-0-0-0---------------------------------3---0-0-0-0---------------------------------3-|

D#-----------------------------------------------------------------------5p3p0---------|
A#-----------------------------------------------------------------------------5p3p0---|
G#---------------------------5-3-5----------------------------10-10-9-9----------------|
D#-7-7-7-7-------8h10--7--5--3-3-3-----7-7-7-7-------8-10b10---9--9-7-7----------------|
A#-5-5-5-5--8h10-------7--5--3-3-3-----5-5-5-5--8h10-----------9--9-7-7----------------|
D#-0-0-0-0-------------7--5--------3---0-0-0-0---------------------------------------3-|


D#---------------------------------------------------------------------------------|-7-----------|
A#---------------------------------------------------------------------------------|---7--12-----|
G#-3-3-3-3-3-3-3/5-5-5-5--7-7-7-7-7-7-7/5-5-5-5--3-3-3-3-3-3-3/5-5-5-------5-3-5---|---------12b-|
D#-3-3-3-3-3-3-3/5-5-5-5--7-7-7-7-7-7-7/5-5-5-5--3-3-3-3-3-3-3/5-5-5--7-5--3-3-3---|----lead-----|
A#--------------------------------------------------------------------7-5--3-3-3---|--harmonics--|
D#--------------------------------------------------------------------7-5--------3-|-------------|


D#-1h0---------------------|-------------------------|
A#-----1h0-----------------|-------------------------|
G#-------------------------|-------0---------------6-|
D#---------1h0-------------|--0h5h6-------0----------|
A#-------------1h0-----4b--|---------0h5h6-------0---|
D#-----------------1-0-----|----------------0h5h6----|


D#-------------------------------3h5h3h0----------|--------------------|
A#-5h6h5--5--5h6h5--5--5h6h5--5----------3h5h3h0--|--------------------|
G#------5---------5---------5---------------------|--------------------|
D#------------------------------------------------|-5h7h5h0----5-----7-|
A#------------------------------------------------|----------6---6/8---|
D#------------------------------------------------|--------------------|

D#---------------------------------------------------------------------------------|-7-----------|
A#---------------------------------------------------------------------------------|---7--12-----|
G#-3-3-3-3-3-3-3/5-5-5-5--7-7-7-7-7-7-7/5-5-5-5--3-3-3-3-3-3-3/5-5-5------5-5-5----|---------12w-|
D#-3-3-3-3-3-3-3/5-5-5-5--7-7-7-7-7-7-7/5-5-5-5--3-3-3-3-3-3-3/5-5-5--7-5-5-5-5----|----lead-----|
A#--------------------------------------------------------------------7-5----------|--harmonics--|
D#------------------------------------------------------------------------------3b-|-------------|


Solo
D#------------------------------------------------------------------------------------------|
A#-5-5-5-5-5-5/7-7-7-7-7/8-8-8-8-8-8/10r--7h5--5--7h5--5------------------------13-12-10-12-|
G#-------------------------------------------5-------5--------------------------------------|
D#-------------------------------------------------------3/5-5/7-7/8-8-7/5/3/2--------------|
A#------------------------------------------------------------------------------------------|
D#------------------------------------------------------------------------------------------|

D#------------------------------------------------------------------------------------------------|
A#-12-13-12-10-12-15-12-17br--13-12-10b-12--13-10-12-13-10-12-13-10-12-13-10-12--10b--------------|
G#-----------------------------------------------------------------------------------10--5-3-5----|
D#---------------------------------------------------------------------------------------3-3-3----|
A#---------------------------------------------------------------------------------------3-3-3----|
D#----------------------------------------------------------------------------------------------3-|


D#-13r-12r------------|
A#-----------------13-|
G#--------11-12-14----|
D#--------------------|
A#--------------------|
D#--------------------|
Добавлено: 09.10.2013
Другие материалы по этой песне:
  • Аккорды и текст

Страница создана 09.10.2013
http://primanota.ru/polvo/beggars-bowl-chords.htm
Привет, Гость.
Предлагаем пройти революционный курс по гитаре.
Подарок от PrimaNota.Ru, забирай!