PrimaNota.ru - самый крупный в мире бесплатный архив песенных текстов, аккордов, табулатур и нот


Pollyanna - Anchored - таба, видео

Регистрация Запомнить меня
Войти через:  Facebook Google Twitter Vk Yandex Mail.ru

Pollyanna - Anchored - таба, видео

Печатать
Просмотров: 71
Pollyanna - Anchored
Standard Tuning
Tab by Dylan Colson  d_colson@stpatricks.tas.edu.au>

Intro/Keys riff thing (arranged for guitar)
|-----------------------------------|---------------------------------|
|-----------------------------------|------------------------------9~-|
|--10~---11-10~--8-6~--8~-----------|--10~---11-10~--8-6~--8~---------|
|--------------------------8~-10-11-|--------------------------8~-----|
|-----------------------------------|---------------------------------|
|-----------------------------------|---------------------------------|

Intro/Verse Chords:
C# C# A# A#

Chorus Chords:
C# G# A# A#

Bridge Chords:
C# G# A# F

(at the end play A#)

Chords:
  C# A# G# F
|-------------|
|-------------|
|-6-----------|
|-6--8--6--3--|
|-4--8--6--3--|
|----6--4--1--|
     
Добавлено: 24.08.2013
Другие материалы по этой песне:
  • Аккорды и текст

Страница создана 24.08.2013
http://primanota.ru/pollyanna/anchored-chords.htm
Привет, Гость.
Предлагаем пройти революционный курс по гитаре.
Подарок от PrimaNota.Ru, забирай!