PrimaNota.ru - самый крупный в мире бесплатный архив песенных текстов, аккордов, табулатур и нот


Pollo Del Mar - Flash Of Green - аккорды и текст, видео

Регистрация Запомнить меня
Войти через:  Facebook Google Twitter Vk Yandex Mail.ru

Pollo Del Mar - Flash Of Green - аккорды и текст, видео

Печатать
Просмотров: 62
Flash Of Green
Pollo Del Mar
---------------------------------------------------------------------------------------------------------------
                                          Artist - Pollo Del Mar
                                         ************************
                                          Song - Flash Of Green
                                         ***********************
                                      Album - The Golden State (2004)   
                                     ********************************
                                           Tabbed By - Ayreon77
                                          **********************
---------------------------------------------------------------------------------------------------------------
Tuning = Standard

p   = Pull Off
h   = Hammer On
b   = Bend
rb  = Release Bend
rbp = Release Bend Pulloff
br  = Bend Release
brp = Bend Release Pulloff
/   = Slide
UB  = Union Bend


INTRO
******
                    
RIFF 1              Come in with chords on the 5th time
*******             D9 Bb7M   F7M   C
e|--Slightly-mute--|---------------|---------------|---------------|---------------|
B|- right-hand-----|----7 TIMES----|-5-5-----------|----3 TIMES----|-5-5-----------|
G|-2-2-2-2-2-2-2-2-|-2-2-2-2-2-2-2-|-5-5-5-5-3-----|-2-2-2-2-2-2-2-|-5-5-5-5-3-----|
D|-3-3-2-2-3-3-5-3-|-3-2-2-3-3-5-3-|-0-0-5-5-3-0-2-|-3-2-2-3-3-5-3-|-0-0-5-5-3-0-2-|
A|-0-0-0-0-0-0-0-0-|-0-0-0-0-0-0-0-|-----0-0-0-0-0-|-0-0-0-0-0-0-0-|-----0-0-0-0-0-|
E|---------------- |---------------|---------------|---------------|---------------|


--------------------------
00:24
RIFF 2 - NC
*******
e|-------|-------|---------------------|-------|-------|---------------------|
B|-------|-------|---------------------|-------|-------|---------------------|
G|-------|-------|---------------------|-------|-------|---------------------|
D|-------|---3-5-|----s-------h-p------|-------|---3-5-|----s-------h-p------|
A|---3-5-|-5-----|---3\--7-7-7-8-7-3-5-|---3-5-|-5-----|---3\--7-7-7-8-7-3-5-|
E|-5-----|-------|-5-------------------|-5-----|-------|-5-------------------|


--------------------------
RIFF 3
*******
00:38 
  Gm              Dm                Gm                 A        
e|-15-15-15-13-11-10-|-10-10-------|-10-------------13-12-12-|
B|-15----15-13-11-10-|-------13-10-|-10h11-11-11-13-15-14-14-|
G|-15----------------|-------------|-------------------------|
D|-------------------|-------------|-------------------------|
A|-------------------|-------------|-------------------------|
E|-------------------|-------------|-------------------------|

00:44     
  Gm               Dm              Bb7M                       A                       Whammy
e|--------------------------------------------------------------------h--p------18-17/\/\/\/\/\/-|
B|---------------------------------------------------------------15-14-15-14-15------------------|
G|-12--12-12-------------------------------------s---------15-14---------------------------------|
D|-----------15-13-12--12-12----------------12-13\15-14-14---------------------------------------|
A|---------------------------15-12-13-13-15------------------------------------------------------|
E|-----------------------------------------------------------------------------------------------|


--------------------------
00:52
RIFF 2 - NC
*******
e|-------|-------|---------------------|-------|-------|---------------------|
B|-------|-------|---------------------|-------|-------|---------------------|
G|-------|-------|---------------------|-------|-------|---------------------|
D|-------|---3-5-|----s-------h-p------|-------|---3-5-|----s-------h-p------|
A|---3-5-|-5-----|---3\--7-7-7-8-7-3-5-|---3-5-|-5-----|---3\--7-7-7-8-7-3-5-|
E|-5-----|-------|-5-------------------|-5-----|-------|-5-------------------|X4

Come in on the 2nd time of RIFF 2 above
00:58 
                                     p 
e|-10-------10-|-----p--3---------3-3-1-0----h-p----|-----0-1-1---|---------------|-------7-8-8---------------|
B|----13-11-10-|-10-8-6-3---3-5-6-3-3-----1-1-3-1-3-|---3-------3-|--s--5-6-8-8---|--s--8-------10-8----------|
G|----------10-|--------3---------------------------|-2-----------|-2\5---------7-|-7\9-------------------s---|
D|-------------|----------5-------------------------|-------------|---------------|------------------10-10\12-|
A|-------------|------------------------------------|-------------|---------------|---------------------------|
E|-------------|------------------------------------|-------------|---------------|---------------------------|


e|-10-10-------10-10-10-|-----3---------3-3-3-1-0-----1-0-0-|
B|-10-10-13-11-10-10-10-|-8-6-3---3-5-6-3-3-3-------3-------|
G|-10-10-------10-------|-----3-------------------2---------|
D|----------------------|-------5---------------------------|
A|----------------------|-----------------------------------|
E|----------------------|-----------------------------------|


--------------------------
RIFF 3
*******
01:18 
  Gm              Dm                Gm                 A                 
e|-15-15-15-13-11-10-|-10-10-------|-10-------------13-12-12-|
B|-15----15-13-11-10-|-------13-10-|-10h11-11-11-13-15-14-14-|
G|-15----------------|-------------|-------------------------|
D|-------------------|-------------|-------------------------|
A|-------------------|-------------|-------------------------|
E|-------------------|-------------|-------------------------|

01:25        
  Gm               Dm              Bb7M                       A                       Whammy      
e|--------------------------------------------------------------------h--p------18-17/\/\/\/\/\/-|
B|---------------------------------------------------------------15-14-15-14-15------------------|
G|-12--12-12-------------------------------------s---------15-14---------------------------------|
D|-----------15-13-12--12-12----------------12-13\15-14-14---------------------------------------|
A|---------------------------15-12-14-14-15------------------------------------------------------|
E|-----------------------------------------------------------------------------------------------|


--------------------------
01:33
RIFF 4
******* 
  D9        Bbmaj     Fmaj      A               C9                    D9
e|---------|---------|---------|---------------|----------------------b-b---------|
B|-5--3--5-|-6--5--6-|-8--6--8-|-10-10-10-8----|-5--3--5--1-----1-3-5-5-5-5-3---3-|
G|---------|---------|---------|------------10-|-------------2----------------5---|
D|---------|---------|---------|---------------|----------------------------------|
A|---------|---------|---------|---------------|----------------------------------|
E|---------|---------|---------|---------------|----------------------------------|X2


--------------------------
01:59
RIFF 5
*******                 2nd Guitar
e|-----------------|   |-slight right hand-|
B|-----------------|   |--mute-----------8-|
G|---2---2---2---2-|   |-10-10-9-9-10-10---|
D|-3---2---3---5-3-|   |-------------------|
A|-----------------|   |-------------------|
E|-----------------|X8 |-------------------|X6


--------------------------
SOLO
***** 
e|---------------------------------------------------|
B|-10~~~~-10~~~-10~~~-10~~~-10~~~-10~~~-10~~~-10~~~~-|
G|---------------------------------------------------|
D|---------------------------------------------------|
A|---------------------------------------------------|
E|---------------------------------------------------|

02:12                                          UB                                           
e|-------s-|---------------------------------|-10-------|----------------|-UB---------------|
B|-10~~~~\-|------------b-10-rb--------------|-13-13-10-|-10-11-10----10-|-10--brp--------s-|
G|-10~~~~\-|-s---10-12-12----12-10----10---s-|----------|----------12----|-12-12--10----10\-|
D|-10~~~~\-|-\12-------------------12----12\-|----------|----------------|-----------12-----|
A|---------|---------------------------------|----------|----------------|------------------|
E|---------|---------------------------------|----------|----------------|------------------|

           s           s                              s                 b  rb
e|-13-13-13\-|-10-10-10\-|---15--15--15--15--17--17-17\-|--b---bs-|-13-15-15-13---s-|
B|-13-13-13\-|-10-10-10\-|-17--17--17--17--18--18---18\-|-13--13\-|-------------15\-|
G|-----------|-----------|------------------------------|---------|-----------------|
D|-----------|-----------|------------------------------|---------|-----------------|
A|-----------|-----------|------------------------------|---------|-----------------|
E|-----------|-----------|------------------------------|---------|-----------------|


e|---------------------------------------------|
B|------------br-------------------------b-----|
G|-s---10-12-12-10----10----10----10-12-12~~~~-|
D|-\12-------------12----12----12--------------|
A|---------------------------------------------|
E|---------------------------------------------|


--------------------------
RIFF 3
*******
02:38                                                       
  Gm              Dm                Gm                 A                 
e|-15-15-15-13-11-10-|-10-10-------|-10-------------13-12-12-|
B|-15----15-13-11-10-|-------13-10-|-10h11-11-11-13-15-14-14-|
G|-15----------------|-------------|-------------------------|
D|-------------------|-------------|-------------------------|
A|-------------------|-------------|-------------------------|
E|-------------------|-------------|-------------------------|

02:44                                                                                Whammy
  Gm               Dm              Bb7M                       A                       Whammy      
e|--------------------------------------------------------------------h--p------18-17/\/\/\/\/\/-|
B|---------------------------------------------------------------15-14-15-14-15------------------|
G|-12--12-12-------------------------------------s---------15-14---------------------------------|
D|-----------15-13-12--12-12----------------12-13\15-14-14---------------------------------------|
A|---------------------------15-12-14-14-15------------------------------------------------------|
E|-----------------------------------------------------------------------------------------------|


--------------------------
02:52
RIFF 4
*******
  D9        Bbmaj     Fmaj      A               C9                    D9
e|---------|---------|---------|---------------|----------------------b-b---------|
B|-5--3--5-|-6--5--6-|-8--6--8-|-10-10-10-8----|-5--3--5--1-----1-3-5-5-5-5-3---3-|
G|---------|---------|---------|------------10-|-------------2----------------5---|
D|---------|---------|---------|---------------|----------------------------------|
A|---------|---------|---------|---------------|----------------------------------|
E|---------|---------|---------|---------------|----------------------------------|X2

Slightly Different
03:18
  D9        Bbmaj     Fmaj      A             C9                             D9
e|---------|---------|---------|----------s------------|----------|------s------------------|
B|-5--3--5-|-6--5--6-|-8--6--8-|-10--8--10\13-13-10-13-|-13-10-13-|-10-13\17-17-17-15-13-15-|
G|---------|---------|---------|-----------------------|----------|-------------------------|
D|---------|---------|---------|-----------------------|----------|-------------------------|
A|---------|---------|---------|-----------------------|----------|-------------------------|
E|---------|---------|---------|-----------------------|----------|-------------------------|

  D9        Bbmaj     Fmaj      A               C9                    D9
e|---------|---------|---------|---------------|----------------------b-b---------|
B|-5--3--5-|-6--5--6-|-8--6--8-|-10-10-10-8----|-5--3--5--1-----1-3-5-5-5-5-3---3-|
G|---------|---------|---------|------------10-|-------------2----------------5---|
D|---------|---------|---------|---------------|----------------------------------|
A|---------|---------|---------|---------------|----------------------------------|
E|---------|---------|---------|---------------|----------------------------------|

OUTRO
******
e|-----------------|    |-------|
B|-----------------|    |-------|
G|---2---2---2---2-|    |-------|
D|-3---2---3---5-3-|    |-------|
A|-----------------|    |---3-5-|
E|-----------------|X4  |-5-----|



ENJOY..........
Добавлено: 27.06.2016
Другие материалы по этой песне:
  • Аккорды и текст

Страница создана 27.06.2016
http://primanota.ru/pollo-del-mar/flash-of-green-chords.htm
Привет, Гость.
Предлагаем пройти революционный курс по гитаре.
Подарок от PrimaNota.Ru, забирай!