PrimaNota.ru - самый крупный в мире бесплатный архив песенных текстов, аккордов, табулатур и нот


Pollen Of The Industry - No Way - таба, видео

Регистрация Запомнить меня
Войти через:  Facebook Google Twitter Vk Yandex Mail.ru

Pollen Of The Industry - No Way - таба, видео

Печатать
Просмотров: 75
Уроки эстрадного вокала в Санкт-Петербурге
artist: pollen of the industry
song: no way
tabbed by: philip dodds (all my own work)

Intro:
This consists of some broken bar chords...
G(bottom string twice, 3rd string, 4th string)
F(bottom string twice, 4th string, 3rd string)
C(Second string twice, 4th string, 5th string)
D(second string twice, 5th string, 4th string)    x4
played in a flowing motion. meanwhile, there is a small solo going on

E--------------------------------------
B--------------------------------------
G--------------------------------------
D----------13--------------------------
A-13-15-13----13-15-13-----------------
E----------------------13--------------     x4

Verse:
you continue playing the broken chords into the verse, and they are played 8 
times before the solo comes in again. the chords are played yet another 8 
times into the next verse, and then it goes to the chorus:

C#     D#     A#     F     G     E     x4

the verse part and chorus part are played exactly the same again, but then 
it goes to an outro:

G     A     x4

and at the same time there is

E---3---3---5-8-7----------------
B-3---3---3----------------------
G--------------------------------
D--------------------------------
A--------------------------------
E--------------------------------

I HOPE THIS TAB HAS BEEN OF USE TO YOU, BUT ANY COMMENTS SEND THEM TO PHIL 
AT yoododdsp@hotmail.com
     
Добавлено: 05.06.2013
Другие материалы по этой песне:
  • Аккорды и текст

Страница создана 05.06.2013
http://primanota.ru/pollen-of-the-industry/no-way-chords.htm
Привет, Гость.
Предлагаем пройти революционный курс по гитаре.
Подарок от PrimaNota.Ru, забирай!