PrimaNota.ru - самый крупный в мире бесплатный архив песенных текстов, аккордов, табулатур и нот


Polaris - Ashamed Of The Story I Told - таба, видео

Регистрация Запомнить меня
Войти через:  Facebook Google Twitter Vk Yandex Mail.ru

Polaris - Ashamed Of The Story I Told - таба, видео

Печатать
Просмотров: 126
Уроки эстрадного вокала в Санкт-Петербурге
Polaris-
"Ashamed of the Story I Told"
Music From the Adventures of Pete and Pete


Verse: (I know the measures look weird, listen to the song for timing.)
  D                             A
|-----------|-----------------|-----------|-----------------|
|-----------|-----------------|-----------|-----------------|
|---2---5-5-|---4-4---5-4-2-0-|-----------|-----------------|
|-0---0-----|-0-----0---------|---2---5-5-|---4-4---5-4-2-0-|
|-----------|-----------------|-0---0-----|-0-----0---------|
|-----------|-----------------|-----------|-----------------|
 
During the verse, these three riffs are played by a second guitar. 
Again, listen to the song.
 Riff 1        Riff 2        Riff 3
|----------10-|-------------|-------------|
|-------10----|-------------|-------------|
|----11-------|----11-12----|----11-12-11-|
|-12----------|-12-------12-|-12----------|
|-------------|-------------|-------------|
|-------------|-------------|-------------|
 
Chorus:
  D5       A5       C5       G5
|---------|--------|--------|---------|
|---------|--------|--------|---------|
|-77777777|--------|55555555|---------|
|-77777777|77777777|55555555|55555555-|
|-55555555|77777777|33333333|55555555-|
|---------|55555555|--------|33333333-|
 
Bridge:
 F        C        F        C
|1-------|0-------|1-------|0-------|
|1-------|1-------|1-------|1-------|
|2-------|0-------|2-------|0-------|
|3-------|2-------|3-------|2-------|
|3-------|3-------|3-------|3-------|
|1-------|--------|1-------|--------|
|                                   |
|                                   |
|--------|--------|--------|--------|
|--------|--------|--------|--------|
|--------|--------|--------|--------|
|--------|--------|--------|--------|
|----0h2-|3-------|----0h2-|3-------|
|1-------|--3-2-0-|1-------|--3-2-0-|  x2
 
Thereâ^À^Ùs a riff in the song that the bass plays by itself:
|--------|---------|---------|---------|
|--------|---------|---------|---------|
|--------|---------|---------|---------|
|--------|---------|---------|---------|
|-2--2-0-|0--------|--0--0-2-|2-0--0-2-|
|--------|--2--2-0-|0--------|---------|
Добавлено: 28.05.2012
Другие материалы по этой песне:
  • Аккорды и текст

Страница создана 28.05.2012
http://primanota.ru/polaris/ashamed-of-the-story-i-told-chords.htm
Привет, Гость.
Предлагаем пройти революционный курс по гитаре.
Подарок от PrimaNota.Ru, забирай!